PrimaNota.ru - самый крупный в мире бесплатный архив песенных текстов, аккордов, табулатур и нот


Misc Unsigned Bands - Ill Repute - Oxnard - бас-таба

Регистрация Запомнить меня
Войти через:  Facebook Google Twitter Vk Yandex Mail.ru

Misc Unsigned Bands - Ill Repute - Oxnard - бас-таба

Печатать
Просмотров: 46
Chorus
G----------------------------------------|
D----------------------------------------|
A-------------------55-------------------| x6
E----3h5--3h5--3h5-----------------------|

Verse
G----------------------------------------|
D----------------------------------------|
A-----55555-7777777--555555--7777777-----|
E----------------------------------------|

Chorus
G----------------------------------------|
D----------------------------------------|
A-------------------55-------------------| x6
E----3h5--3h5--3h5-----------------------|

Verse
G----------------------------------------|
D----------------------------------------|
A-----55555-7777777--555555--7777777-----|
E----------------------------------------|

Chorus
G----------------------------------------|
D----------------------------------------|
A-------------------55-------------------| x6
E----3h5--3h5--3h5-----------------------|


Verse
G----------------------------------------|
D----------------------------------------|
A-----55555-7777777--555555--7777777-----|
E----------------------------------------|

Chorus
G----------------------------------------|
D----------------------------------------|
A-------------------55-------------------|
E----3h5--3h5--3h5-----------------------|

G----------------------------------------|
D----------------------------------------|
A-------------------554433221100---------|
E----3h5--3h5--3h5-----------------------|

Verse
G----------------------------------------|
D----------------------------------------|
A-----55555-7777777--555555--7777777-----|
E----------------------------------------|

http://users.adelphia.net/~td6/

Ill Repute's Official Website
Добавлено: 10.09.2013
Другие материалы по этой песне:
  • Аккорды и текст

Страница создана 10.09.2013
http://primanota.ru/misc-unsigned-bands/ill-repute-oxnard-chords.htm
Привет, Гость.
Предлагаем пройти революционный курс по гитаре.
Подарок от PrimaNota.Ru, забирай!