PrimaNota.ru - самый крупный в мире бесплатный архив песенных текстов, аккордов, табулатур и нот


Misc Unsigned Bands - The Hunna - Shes Casual - аккорды и текст

Регистрация Запомнить меня
Войти через:  Facebook Google Twitter Vk Yandex Mail.ru

Misc Unsigned Bands - The Hunna - Shes Casual - аккорды и текст

Печатать
Просмотров: 163
The Hunna - Shes Casual
Misc Unsigned Bands
Hey everybody I'm Leon. This is my Version of the new Song "She's Casual" from The Hunna.
There is no offical lyrics of this Song online, so im not sure that these are the correct Lyrics.
The Chords without an Capo are: G, D, Bm, A
But its easier to play with a Capo and it sound nearly the same.

Capo 2. Fret

Intro:

e|------------------------------------------------------------------------------------x
B|------------------------------------------------------------------------------------x
G|---2----------2----------9----------9----------5----------4----------2----------2---x
D|------------------------------------------------------------------------------------x  
A|------------------------------------------------------------------------------------x
E|1----1-----1----1-----8----8-----8----8-----5----5-----3----3-----1----1-----1----1-x

Verse:
Every Night i feel the same, my girl turns and walks away, every time i hear her name is without her.
And all she does is play these games, it always been a claim to fame, every time i hear her name is disaster.

e|------------------------------------------------------------------------------------x
B|------------------------------------------------------------------------------------x
G|---2----------2----------9----------9----------5----------4----------2----------2---x
D|------------------------------------------------------------------------------------x 2x
A|------------------------------------------------------------------------------------x
E|1----1-----1----1-----8----8-----8----8-----5----5-----3----3-----1----1-----1----1-x

Pre-Chorus:
She makes my heart beat go faster, The thing is i trust her.

e|-----------------------------------------x
B|-----------------------------------------x
G|---2----------2-------------4---------4--x
D|-----------------------------------------x 
A|-----------------------------------------x
E|1----1-----1----1------3----3-----3----3-x

Chorus: 
               F                   C                      Am                   G
Because she's casual she likes it, mine and she knows it, gets when i need it, says to me:" Can you feel it"
F         C               G
She's casual but she dont mind.

Verse:
              F                                                    C
And from the dark to the morning light, she wakes beside me and I know that i will be allright, shes all i want 
    Am              G                  F                          
to see, she wonders why, i look in her eyes. I think i've been looking for you all my life, and you ask me what 
          C                                Am            G       F
i've been doing with my time and i've been searching for you baby. 

Chorus:
               F                   C                      Am                   G
Because she's casual she likes it, mine and she knows it, gets when i need it, says to me:" Can you feel it"
F         C               G
She's casual but she dont mind.

Verse:

e|------------------------------------------------------------------------------------x
B|------------------------------------------------------------------------------------x
G|---2----------2----------9----------9----------5----------4----------2----------2---x
D|------------------------------------------------------------------------------------x
A|------------------------------------------------------------------------------------x
E|1----1-----1----1-----8----8-----8----8-----5----5-----3----3-----1----1-----1----1-x

Pre-Chorus:
             F                                     G
She makes my heart beat go faster, The thing is i trust her. 2x  

Chorus: 
               F                   C                      Am                   G
Because she's casual she likes it, mine and she knows it, gets when i need it, says to me:" Can you feel it"
F         C               G
She's casual but she dont mind.. 2x

               F                   C                      Am                   G
Because she's casual she likes it, mine and she knows it, gets when i need it, says to me:" Can you feel it"




Добавлено: 06.04.2016
Другие материалы по этой песне:
  • Аккорды и текст

Страница создана 06.04.2016
http://primanota.ru/misc-unsigned-bands/hunna-shes-casual-chords.htm
Привет, Гость.
Предлагаем пройти революционный курс по гитаре.
Подарок от PrimaNota.Ru, забирай!