PrimaNota.ru - самый крупный в мире бесплатный архив песенных текстов, аккордов, табулатур и нот


Misc Unsigned Bands - Hummersqueal - Buick A Monterrey - таба

Регистрация Запомнить меня
Войти через:  Facebook Google Twitter Vk Yandex Mail.ru

Misc Unsigned Bands - Hummersqueal - Buick A Monterrey - таба

Печатать
Просмотров: 44
ACORDES:> G#m B

/    = Slide
P.M. = Palm muted
xx   = las veces que sea necesario

Intro:

Guitarras 1 Y 2:

    G#m
e|---------------------|
B|---------4-4-4-4-4---|
G|---------4-4-4-4-4---|
D|--6-6-6--6-6-6-6-6---|
A|--6-6-6--6-6-6-6-6---|
E|--4-4-4--4-4-4-4-4---|x4
     P.M.


Guitarra 1:              Guitarra 2:

      B
e|------------|       e|-------------|
B|------------|       B|-------------|
G|------------|       G|--4-/-6-/-8--|
D|----9-------|       D|--x---x---x--|
A|----9-------|       A|--2-/-4-/-6--|
E|----7--xx---|       E|--x---x---x--|x2

Riff 1:

Guitarras 1 y 2:

   G#m      B
e|------------------|
B|------------------|
G|------------------|
D|--6-------9-------|
A|--6-------9-------|
E|--4--xx---7--xx---|

   P.M.

B
                                G#m
No pienso discutir, ni un momento

                                       B
Amigos y enemigos dejo ya no estoy aqui

                                     G#m
Estando solo asi, no corre el tiempo

                                         B
No pasan los minutos y ya no quiero seguir


Seguir no!


Riff 2:

Guitarra 1:

e|---------------------------------------|   |--------------------------|
B|---------------------------------------|   |--------------------------|
G|--4-/-11-/-9-/--8-/-6----8-/-6-/-8-/---|   |--------------------------|
D|--x----x---x----x---x----x---x---x-----|   |--9---9-/-4--4-4----6-----|
A|--2-/--9-/-7--/-6-/-4----6-/-4-/-6-/---|   |--9---9-/-4--4-4----6-----|
E|--x----x---x----x---x----x---x---x-----|x2 |--7---7-/-2--2-2----4-x11-|x2


Guitarra 2:

   G#m      B
e|------------------|
B|------------------|
G|------------------|
D|--6-------9-------|
A|--6-------9-------|
E|--4--xx---7--xx---|


Riff 3:

B
                                G#m
No pasa nada aqui, no lo siento

                                       B
Cuando este ausente nadie pensara en mi

                                 G#m
No encuentro nada aqui, ya no creo

                                    B
Ya nada me detuvo cuando estuve aqui


Aqui


Cuando estuve aqui!!!


---> Se repite el Riff 2.


Termina:

   G#m
e|---------|
B|---------|
G|---------|
D|--6------|
A|--6------|
E|--4--xx--|
   P.M.


Nota: El Slide up y el Slide Down, los puse con el mismo simbolo,
ya que el servidor no me acepta la barra inversa para el
slide down.

Gracias a Ivan Paredes ke fue el creadorde este tabs, yo solo lo pusi aki por ke no estaba.
Добавлено: 26.02.2014
Другие материалы по этой песне:
  • Аккорды и текст

Страница создана 26.02.2014
http://primanota.ru/misc-unsigned-bands/hummersqueal-buick-a-monterrey-chords.htm
Привет, Гость.
Предлагаем пройти революционный курс по гитаре.
Подарок от PrimaNota.Ru, забирай!