PrimaNota.ru - самый крупный в мире бесплатный архив песенных текстов, аккордов, табулатур и нот


Misc Unsigned Bands - Hubro - Lava - бас-таба

Регистрация Запомнить меня
Войти через:  Facebook Google Twitter Vk Yandex Mail.ru

Misc Unsigned Bands - Hubro - Lava - бас-таба

Печатать
Просмотров: 58
Intro/preverse/prechorus:
G:------------0---0--|
D:--5h7------2-2-4-4-|
A:0------0--3---5----|
E:-------------------|

Chorus/postchorus/solo:
G:-------------------------------------------|
D:----------------0--------------------------| x2
A:--------0h1-11---3h1--------1h3-5h3-5h3\1--|
E:3-33-1-3------------1-11-1h3-------------3-|
Добавлено: 01.01.2014
Другие материалы по этой песне:
  • Аккорды и текст

Страница создана 01.01.2014
http://primanota.ru/misc-unsigned-bands/hubro-lava-chords.htm
Привет, Гость.
Предлагаем пройти революционный курс по гитаре.
Подарок от PrimaNota.Ru, забирай!