PrimaNota.ru - самый крупный в мире бесплатный архив песенных текстов, аккордов, табулатур и нот


Misc Unsigned Bands - Hoopaa - Fossils - аккорды и текст

Регистрация Запомнить меня
Войти через:  Facebook Google Twitter Vk Yandex Mail.ru

Misc Unsigned Bands - Hoopaa - Fossils - аккорды и текст

Печатать
Просмотров: 39
Hoopaa - Fossils
Misc Unsigned Bands
band: HooPaa
were not big yet but we are good.
our band was named manic but we decided that, that was a name to hard for our style.

guitar droped to C  (cgcfad)

  section-1
(clean, with light delay) (repeat 16x)

D[------------------------------------
A[------------------------------------
F[------------------------------------
C[------9--9--9--9---10---10---10--10-
G[----0--0--0--0---0----0----0---o----
C[------------------------------------


D[-------------------------------------
A[-------------------------------------
F[-------------------------------------
C[-----9---9---9--9---10---10---10--10-
G[--8----8---8--8---8----8----8----8---
C[-------------------------------------

  section-2
 (heavy distortion with no delay)  (repeat 4x)

D[--------------------------------------------
A[--------------------------------------------
F[--------------------------------------------
C[----5-5-5-55/6-6-6-666--0-0-0-000-0-0-0-000-
G[----5-5-5-55/6-6-6-666--0-0-0-000-0-0-0-000-
C[----5-5-5-55/6-6-6-666--0-0-0-000-0-0-0-000-

    section-3
 (heavy distortion with (palm-mute-3x) then open last time)
D[--------------------------------------------
A[--------------------------------------------
F[--------------------------------------------
C[-----0-000-1-0-000--------------------------
G[-----0-000-1-0-000--------------------------
C[-----0-000-1-0-000--------------------------


   order:
   section-1-2-1-2-3-2-1
Добавлено: 08.09.2013
Другие материалы по этой песне:
  • Аккорды и текст

Страница создана 08.09.2013
http://primanota.ru/misc-unsigned-bands/hoopaa-fossils-chords.htm
Привет, Гость.
Предлагаем пройти революционный курс по гитаре.
Подарок от PrimaNota.Ru, забирай!