PrimaNota.ru - самый крупный в мире бесплатный архив песенных текстов, аккордов, табулатур и нот


Misc Unsigned Bands - The Hearts Final Transcendence - таба, видео

Регистрация Запомнить меня
Войти через:  Facebook Google Twitter Vk Yandex Mail.ru

Misc Unsigned Bands - The Hearts Final Transcendence - таба, видео

Печатать
Просмотров: 96
-------------------------------------------------------------------------------
                             SONG NAME - Band Name
-------------------------------------------------------------------------------
Tabbed by:RnB
E-mail:rennbrasfield@yahoo.com

Tuning:Standard
Capo 4th Fret

INTRO:
e|---------------------------------------------------------------------------|
B|-5-----5-3-----3-1-----1-3-1-0-1-5-----5-3-----3-1-----1-3-1-0-------------|
G|-2---2---0---0---0---0-----------2---2---0---0---0---0---------------------|  X2
D|-3-3-----0-0-----2-2-------------3-3-----0-0-----2-2-----------------------|
A|---------------------------------------------------------------------------|
E|---------------------------------------------------------------------------|

e|---------------------------------------------------------------------------|
B|-5-----5-3-----3-0-----0-1-3-1-0-5-----5-3-----3-1-----1-3-1-0-------------|
G|-2---2---0---0---0---0-----------2---2---0---0---0---0---------------------|  X2
D|-3-3-----0-0-----2-2-------------3-3-----0-0-----2-2-----------------------|
A|---------------------------------------------------------------------------|
E|---------------------------------------------------------------------------|

CHORUS:
e|---------------------------------------------------------------------------|
B|-5----5---3----3---1----1--3p1p0-0h1--5----5---3----3---0----0--0h1h3-1p0--|
G|-2--2---2-0--0---0-0--0---0----0---0--2--2---2-0--0---0-0--0--------0---0--|  X4
D|-3-3-3-3--0-0-0-0--2-2-2-2---2--------3-3-3-3--0-0-0-0--2-2-2-2---2--------|
A|---------------------------------------------------------------------------|
E|---------------------------------------------------------------------------|

ENDING:
e|---------------------------------------------------------------------------|
B|-5---3--1--1--1-5---3--0--0--0---------------------------------------------|
G|-2--2--0--0--0--2--2--0--0--0----------------------------------------------|  x2
D|-3-3--0--2--2---3-3--0--2--2-----------------------------------------------|
A|---------------------------------------------------------------------------|
E|---------------------------------------------------------------------------|


Without a Capo (which is much harder to play) would be this:

INTRO:
e|---------------------------------------------------------------------------|
B|-9-----9-7-----7-5-----5-7-5-4-5-9-----9-7-----7-5-----5-7-5-4-------------|
G|-6---6---4---4---4---4-----------6---6---4---4---4---4---------------------|  X2
D|-7-7-----4-4-----6-6-------------7-7-----4-4-----6-6-----------------------|
A|---------------------------------------------------------------------------|
E|---------------------------------------------------------------------------|

e|---------------------------------------------------------------------------|
B|-9-----9-7-----7-4-----4-5-7-5-4-9-----9-7-----7-5-----5-7-5-4-------------|
G|-6---6---4---4---4---4-----------6---6---4---4---4---4---------------------|  X2
D|-7-7-----4-4-----6-6-------------7-7-----4-4-----6-6-----------------------|
A|---------------------------------------------------------------------------|
E|---------------------------------------------------------------------------|

CHORUS:
e|---------------------------------------------------------------------------|
B|-9----9---7----7---5----5--7p5p4-4h5--9----9---7----7---4----4--4h5h7-5p4--|
G|-6--6---6-4--4---4-4--4---4----4---4--6--6---6-4--4---4-4--4--------4---4--|  X4
D|-7-7-7-7--4-4-4-4--6-6-6-6---6--------7-7-7-7--4-4-4-4--6-6-6-6---6--------|
A|---------------------------------------------------------------------------|
E|---------------------------------------------------------------------------|
ENDING:
e|---------------------------------------------------------------------------|
B|-9---7--5--5--5-9---7--4--4--4---------------------------------------------|
G|-6--6--4--4--4--6--6--4--4--4----------------------------------------------|  x2
D|-7-7--4--6--6---7-7--4--6--6-----------------------------------------------|
A|---------------------------------------------------------------------------|
E|---------------------------------------------------------------------------|

This is a personal piece i have written called The Heart's Final Transcendence because 
the picking patterns
transcend and really hit the heart. I hope you enjoy this as much as I do.
If you find this piece interesting and want to learn how to play it properly and your 
having trouble, send me
some messages, because if I get enough people who do then I will Post a Youtube video on 
how to play this.


************************************

| /   slide up
| \   slide down
| h   hammer-on
| p   pull-off
| ~   vibrato
| +   harmonic
| x   Mute note
| b   Bend
| pb  Pre-bend
| br  Bend release
| pbr Pre-bend release
| brb Bend release bend

************************************
Добавлено: 11.07.2015
Другие материалы по этой песне:
  • Аккорды и текст

Страница создана 11.07.2015
http://primanota.ru/misc-unsigned-bands/hearts-final-transcendence-chords.htm
Привет, Гость.
Предлагаем пройти революционный курс по гитаре.
Подарок от PrimaNota.Ru, забирай!