PrimaNota.ru - самый крупный в мире бесплатный архив песенных текстов, аккордов, табулатур и нот


Misc Unsigned Bands - Haista Vittu - Kolmannen Asteen Turbomuna - таба

Регистрация Запомнить меня
Войти через:  Facebook Google Twitter Vk Yandex Mail.ru

Misc Unsigned Bands - Haista Vittu - Kolmannen Asteen Turbomuna - таба

Печатать
Просмотров: 55
                         Kolmannen asteen turbomuna
- = Palm Mute
/ = Slide
~ = Let Note Ring
h = Hammer On
P = Pull Off



 E|-----------------------------------------------|
 B|-----------------------------------------------|
 G|-----------------------------------------------| X4
 D|-----------------------------------------------|
 A|-12------109-12------11109-12------9910-12-----|
 D|0--1312/9---0--1312/9-----0--1312/9----0--1312-|


|5--8| for the 1st and 3rd time. |7--10| for the 2nd and 4th time.
|5--8|                           |7--10|
|5--8|                           |7--10|

|----------------------------------------|3-3-33-|
|----------------------------------------|6-6-66-| this ending,
|----------------------------------------|5-5-55-| 1st & 3rd time
|----------------------------------------|3-3-33-|
|----------------------------------------|3-3-33-|
|0-000-0-00-0h1p1-0h1p1-0h1p1-0-000-0-00-|3-3-33-|
   ---   --                     ---   --

|----------------------------------------|--------|
|----------------------------------------|--------| This ending
|----------------------------------------|--------| 2nd & 4th time
|----------------------------------------|--------|
|----------------------------------------|875----5|
|0-000-0-00-0h1p1-0h1p1-0h1p1-0-000-0~---|---8753-|

These Last 2 Riffs Are Played 4 Times.


Добавлено: 21.08.2013
Другие материалы по этой песне:
  • Аккорды и текст

Страница создана 21.08.2013
http://primanota.ru/misc-unsigned-bands/haista-vittu-kolmannen-asteen-turbomuna-chords.htm
Привет, Гость.
Предлагаем пройти революционный курс по гитаре.
Подарок от PrimaNota.Ru, забирай!