PrimaNota.ru - самый крупный в мире бесплатный архив песенных текстов, аккордов, табулатур и нот


Misc Unsigned Bands - Gwen Stacy - The Fear In Your Eyes - бас-таба

Регистрация Запомнить меня
Войти через:  Facebook Google Twitter Vk Yandex Mail.ru

Misc Unsigned Bands - Gwen Stacy - The Fear In Your Eyes - бас-таба

Печатать
Просмотров: 38
   GWEN STACY
   THE FEAR IN YOUR EYES
   in standard bass tuning :)

G : ------------------------------------------------------------------------|
D : ------------------------------------------------------------------------|
A : ------------------------------------------------------------------------|
E : 33333333333333-0-11111111-333333333-55555555-77777777-55555555-77777777-|

G : -----------------------------------------------------------------------|
D : -----------------------------------------------------------------------|
A : -----------------------------------------------------------------------|
E : 55555555-99999999-0-0-0-0-0-0-------0-0000------0-0-0---0-0--0-0-33333-|

G : ---------------------------------------:
D : ---------------------------------------:  (singing starts)
A : ---------------------------------------:
E : 44444444----0-0000-----0-0-0---0-0--0-0:

G : ----------------------------------------------------------------|
D : ----------------------------------------------------------------|
A : ----------------------------------------------------------------|
E : 7777777-55555555-0-0-55555555-77777777-555555555-777777777------|

G :-----------------------------------------------------------------|
D :-----------------------------------------------------------------|
A :-----------------------------------------------------------------|
E :-55555555-777777777-555555555-777777777--333--555-00-00-99-99-00-|00

G : -----------------------------------------------------------------|
D : -----------------------------------------------------------------|
A : -----------------------------------------------------------------|
E : -0-00--00-000-0-00--00-000-------454-0----454-0----0000000-------|

G :--------------------------------------------------------------------|
D :--------------------------------------------------------------------|
A :--------------------------------------------------------------------|
E :-0-0-00--00-0--0-0-0--0-000--0-0-00--00-0--0-0-0--0-000-000-0-0-0-0-|

G : ------------------------------------------------------------------|
D : ------------------------------------------------------------------|
A : ------------------------------------------------------------------|
E : -0-0-00--00-0--0-0-0--0-000--0-0-00--------------99999-12121212---|
                        (SINGING BIT)
G : ------------------------------------------------------------------|
D : ------------------------------------------------------------------|
A : ------------------------------------------------------------------|
E : 77777777-5555555-0-0-55555-77777-55555-77777-555555555-777777777--|

G : -----------------------------------------------------------------|
D : -----------------------------------------------------------------|
A : -----------------------------------------------------------------|
E : 55555555-77777777----0-0000---0--111111111-0-0000---0--333333333-|

G : ------------------------------------9--------------------9--------|
D : ----------------------5-9-5/3-3/5----------5-9-5/3-3/5------------|
A : ------------------------------------------------------------------|
E : 0*0*0*0----0-0000---0------------------0--------------------------|

G : -----------------------------------9--------------------9----------|
D : ----------------------5-9-5/3-3/5---------5-9-5/3-3/5--------------|
A : -------------------------------------------------------------------|
E : 000000-3-5-7-9---0-------------------0-----------------------------|

G :------------------:
D :------------------:
A :------------------:
E :-000000-33333333-0:


NOTE:
Awesome song hopefully it is about right comment me if ive got some wrong
ENJOY :)
Добавлено: 25.12.2013
Другие материалы по этой песне:
  • Аккорды и текст

Страница создана 25.12.2013
http://primanota.ru/misc-unsigned-bands/gwen-stacy-the-fear-in-your-eyes-chords.htm
Привет, Гость.
Предлагаем пройти революционный курс по гитаре.
Подарок от PrimaNota.Ru, забирай!