PrimaNota.ru - самый крупный в мире бесплатный архив песенных текстов, аккордов, табулатур и нот


Misc Unsigned Bands - Guideline - Mr Jay - таба, видео

Регистрация Запомнить меня
Войти через:  Facebook Google Twitter Vk Yandex Mail.ru

Misc Unsigned Bands - Guideline - Mr Jay - таба, видео

Печатать
Просмотров: 50
GUIDELINE - MR. JAY


YOUTUBE --> http://www.youtube.com/watch?
v=zyhbVrbz3tc&list=UUyPOwnuCLxLEou6Y05a8owQ&index=7&feature=plcp





INTRO - DigiTech Whammy Pedal(low-high octave)
F |-----------------------------------------------------------|
C |-----------------------------------------------------------|
G#|7--7/--7\--7/--7\--7/--7\--7/--7\--7/--7\--7/--7\--7/--7//-|
D#|-----------------------------------------------------------|
A#|-----------------------------------------------------------|
D#|-----------------------------------------------------------|
  pedal bend the whammy from low to high octave and vice-versa





MAIN RIFF - High Gain
F |------------------------------------------------------------|
C |------------------------------------------------------------|
G#|------------------------------------------------------------|
D#|--3-----------x0-x0----3-----------x0-x0----3-----------x0--|
A#|----5-3-----0-x0-x0------5-3-----0-x0-x0------5-3-----0-x0--|
D#|0-------5-3-0-x0-x0--0-------5-3-0-x0-x0--0-------5-3-0-x0--|

                                
F |------------------------|
C |------------------------|
G#|------------------------|
D#|x0----3-----------x0-x0-|
A#|x0------5-3-----0-x0-x0-|
D#|x0--0-------5-3-0-x0-x0-|





VERS - Mid Gain
F |------------------------------------------------------------|
C |------------------------------------------------------------|
G#|------------------------------------------------------------|
D#|------0-----0---------0-----0---------0-----0---------0-----|
A#|------------------------------------------------3-3-3---3-3-|
D#|0-0-0---0-0---0-3-3-3---3-3---3-5-5-5---5-5---5-------------|
   

F |------------------------------------------------------------|
C |------------------------------------------------------------|
G#|------------------------------------------------------------|
D#|0---------0-----0---------0-----0---------0-----0-----------|
A#|--3-5-5-5---5-5---5-3-3-3---3-3---3-------------------------|
D#|------------------------------------5-5-5---5-5---5-5-5-0-3-|
         

F |------------------------------------------------------------|
C |------------------------------------------------------------|
G#|------------------------------------------------------------|
D#|--0-----------0-----0---------0-----0---------0-----0------0|
A#|------------------------------------------------------3--3--|
D#|5---5-3-0-0-0---0-0---0-3-3-3---3-3---3-5-5-5---5-5---------|

 
F |----------------------------------------------------------|
C |----------------------------------------------------------|
G#|----------------------------------------------------------|
D#|-----0---0---0---0---0---0-----0---0---0---0------0----0--|
A#|-3-3---3---5---5---5---5---5/8---8---8---8---8/10---10----|
D#|----------------------------------------------------------|
                                        

F |------------------|
C |------------------|
G#|------------------|
D#|---0--0--0--0-----|
A#|10---10-10-10---\-|
D#|----------------\-|





BRIDGE - High Gain
F |----------------------------------------------------------------|
C |--3-3----6-6----8-8--------13-13-----15-15-----13-13--8-8-8-----|
G#|--2-2----5-5----7-7--------12-12-----14-14-----12-12--7-7-7-----|
D#|--0-0----3-3----5-5--------10-10-----12-12-----10-10--5-5-5-----|
A#|0-0-0--3-3-3--5-5-5--10-10-10-10--12-12-12--10-10-10--5-5-5--0-0|
D#|0-0-0--3-3-3--5-5-5--10-10-10-10--12-12-12--10-10-10--5-5-5--0-0|
                                                                        




CHORUS - High Gain
F |------------------------------------------------------------|
C |------------------------------------------------------------|
G#|------------------------------------------------------------|
D#|--3-----------x0-x0---3-----------x0-x0---3-----------x5-x5-|
A#|----5-3-----0-x0-x0-----5-3-----0-x0-x0-----5-3-----5-x5-x5-|
D#|0-------5-3-0-x0-x0-0-------5-3-0-x0-x0-0-------5-3-5-x5-x5-|


F |------------------------------------------------------------|
C |------------------------------------------------------------|
G#|------------------------------------------------------------|
D#|--3---------------------------3-----------x0-x0---3---------|
A#|----5-3-----3/10-x10x10-12~~----5-3-----0-x0-x0-----5-3-----|
D#|5-------5-3-3/10-x10x10-12~~0-------5-3-0-x0-x0-0-------5-3-|


F |------------------------------------------------------------|
C |------------------------------------------------------------|
G#|------------------------------------------------------------|
D#|--x0-x0---3-----------x5-x5---3-------------------------0---|
A#|0-x0-x0-----5-3-----5-x5-x5-----5-3-----3/10-x10x10-12~~0---|
D#|0-x0-x0-0-------5-3-5-x5-x5-5-------5-3-3/10-x10x10-12~~0---|
                                        




SOLO RYTHM GUITAR - High Gain
F |--------------------------------------------------------|
C |--------------------------------------------------------|
G#|--------------------------------------------------------|
D#|-0--0--0--0--0-0-3--3--3--3--3-3-5--5--5--5--5-5-8--8--8|
A#|-0--0--0--0--0-0-3--3--3--3--3-3-5--5--5--5--5-5-8--8--8|
D#|-0--0--0--0--0-0-3--3--3--3--3-3-5--5--5--5--5-5-8--8--8|


F |-----------------------------------------------------------|
C |-----------------------------------------------------------|
G#|-----------------------------------------------------------|
D#|10--10--10--0--0--0--0--0-0-3--3--3--3--3-3-5--5--5--5--5-5|
A#|10--10--10--0--0--0--0--0-0-3--3--3--3--3-3-5--5--5--5--5-5|
D#|10--10--10--0--0--0--0--0-0-3--3--3--3--3-3-5--5--5--5--5-5|


F |---------------|
C |---------------|
G#|---------------|
D#|8--8-8-10\-----|
A#|8--8-8-10\-0-0-|
D#|8--8-8-10\-0-0-|





SOLO - DigiTech Whammy Pedal (low-high octave)
F |-----------------------------------------------------------------|
C |-----------------------------------------------------------------|
G#|-------10h12p10----10-12-12/14~~-----10h12p10----10-12-10-12/14~~|
D#|-10-12----------12-------------10-12----------12-----------------|
A#|-----------------------------------------------------------------|
D#|-----------------------------------------------------------------|
        
                                                
F |-------------------------------------------------------------|
C |-------------------------------------------------------------|
G#|-------10h12p10----10----------------------------------------|
D#|-10-12----------12----0-10-12-0-10-12-0-10-12-0-10-12-0-10-12|
A#|-------------------------------------------------------------|
D#|-------------------------------------------------------------|
 

F |-------------------------------------------------------------|
C |-------------------------------------------------------------|
G#|------------------------------------------------------7p5---5|
D#|-0-10-12-0-10-12-0-10-12-0-10-12-0-10-12-12-12-12-12------7--|
A#|-------------------------------------------------------------|
D#|-------------------------------------------------------------|


F |------------------------------------------------------------|
C |------------------------------------------------------------|
G#|-----------------------------------5~-----------------------|
D#|-7-5-7p5\3-5-3---3-----------3-5-7------------10-11----10-11|
A#|---------------5---5-4-3-4-5---------10-11-12-------12------|
D#|------------------------------------------------------------|
                

F |-------------------------------------------------------------|
C |-------------------------------------------------------------|
G#|-------------------------10-11-12-12/14\12p10----10h12~10h12~|
D#|-12-10h11p10----10-11-12----------------------12~------------|
A#|-------------12----------------------------------------------|
D#|-------------------------------------------------------------|
                                        

F |---------------------------------------------------------------|
C |---------------------------------------------------------------|
G#|~10h12~10h12~12~10~------------------12-11-10----------10-11-12|
D#|----------------------------10-11-12----------12-11-10---------|
A#|-------------------10-11-12------------------------------------|
D#|---------------------------------------------------------------|


F |----------10/10-10/10-|
C |-10-12-13-13/15-13/15-|
G#|----------------------|
D#|----------------------|
A#|----------------------|
D#|----------------------|


www.facebook.com/guidelineband
www.myspace.com/guidelineband
www.youtube.com/user/guidelineband

all rights reserved by GUIDELINE
Добавлено: 14.08.2013
Другие материалы по этой песне:
  • Аккорды и текст

Страница создана 14.08.2013
http://primanota.ru/misc-unsigned-bands/guideline-mr-jay-chords.htm
Привет, Гость.
Предлагаем пройти революционный курс по гитаре.
Подарок от PrimaNota.Ru, забирай!