PrimaNota.ru - самый крупный в мире бесплатный архив песенных текстов, аккордов, табулатур и нот


Misc Unsigned Bands - Glass Giraffes - Better Alone - таба

Регистрация Запомнить меня
Войти через:  Facebook Google Twitter Vk Yandex Mail.ru

Misc Unsigned Bands - Glass Giraffes - Better Alone - таба

Печатать
Просмотров: 54
-------------------------------------------------------------------------------
                             Glass Giraffes-Better Alone
-------------------------------------------------------------------------------
Tabbed by:SebadohJr
E-mail:dinosauresq@hotmail.com

Tuning: Standard, played with heavy reverb and delay 
   Main riff/verse 
e|--0-0-0-0--0-0-0-----0-0-0-0--0-0-0------|
B|-9-9-9-9--7-7-9-----7-7-7-7--5-5-7-------|
G|----------------9\-----------------6/----|
D|-----------------------------------------|
A|-----------------------------------------|
E|-----------------------------------------|
   Verse
e|-----------------------------------------------|
B|-----------------------------------------------|
G|-----------------------------------------------|
D|------------------------------9999999----------|
A|------------------------------9999999----------|
E|-2-2-2-2-2-4444-555-0-0-0-0-0-7777777----------|
  verse fill (1:39)
e|-----------------------------------------|
B|-----------------------------------------|
G|-444444444444-4421-2211-2211-------------|
D|-----------------------------224444444---|
A|-----------------------------------------|
E|-----------------------------------------|
  solo (2:11)
e|--9--9--9--9---12--12--11--11---9--9--9--9---7-7-7-7---|
B|---12-12-12-12---12--12--12--12--12-12-12-12--7-7-7-7--|
G|-------------------------------------------------------|
D|-------------------------------------------------------|
A|-------------------------------------------------------|
E|-------------------------------------------------------|


e|--9--9--9--9---12--12--11--11---9--9--9--9----19--19--19--19--|
B|---12-12-12-12---12--12--12--12--12-12-12--/14--14--14--14----|
G|--------------------------------------------------------------|
D|--------------------------------------------------------------|
A|--------------------------------------------------------------|
E|--------------------------------------------------------------|

e|-19--19--19--19---16--16--17--17--14--14--14--14--17--17--16--16----|
B|---14--14--14--14---14--14--14--14--14--14--14--14--14--14--14--14--|
G|--------------------------------------------------------------------|x2
D|--------------------------------------------------------------------|
A|--------------------------------------------------------------------|
E|--------------------------------------------------------------------|


************************************
Добавлено: 02.09.2013
Другие материалы по этой песне:
  • Аккорды и текст

Страница создана 02.09.2013
http://primanota.ru/misc-unsigned-bands/glass-giraffes-better-alone-chords.htm
Привет, Гость.
Предлагаем пройти революционный курс по гитаре.
Подарок от PrimaNota.Ru, забирай!