PrimaNota.ru - самый крупный в мире бесплатный архив песенных текстов, аккордов, табулатур и нот


Misc Unsigned Bands - Girugamesh - Moujou No Koushin - таба

Регистрация Запомнить меня
Войти через:  Facebook Google Twitter Vk Yandex Mail.ru

Misc Unsigned Bands - Girugamesh - Moujou No Koushin - таба

Печатать
Просмотров: 47
Уроки эстрадного вокала в Санкт-Петербурге
       Q    S S E  E  E  E  E     Q    S S E  E  E  E  E   
D#5||---------------------------|--------------------------|
A#4||---------------------------|--------------------------|
F#4||*--------------------------|--------------------------|
C#4||*--2--------2-----2--0-----|--2--------2-----2--0-----|
G#3||---2--------2-----2--0-----|--2--------2-----2--0-----|
C#3||---2--------2-----2--0-----|--2--------2-----2--0-----|


  Q    S S E  E  E  E  E     Q    E  E  E  E  Q         W                 
--------------------------|-------------------------||-------------------|
--------------------------|-------------------------||-------------------|
--------------------------|------------------------*||-------------------|
--2--------2-----2--0-----|--2----5--4--5--4--0----*||--2----------------|
--2--------2-----2--0-----|--2----5--4--5--4--0-----||--2----------------|
--2--------2-----2--0-----|--2----5--4--5--4--0-----||--2----------------|


  E  E  E  E  E  E  E  E       Q    S S E  E  E  E  E   
--------------------------||---------------------------|
--------------------------||---------------------------|
--------------------------||*--------------------------|
--x--x--x--x--x--x--x--x--||*--2--------2-----2--0-----|
--x--x--x--x--x--x--x--x--||---2--------2-----2--0-----|
--x--x--x--x--x--x--x--x--||---2--------2-----2--0-----|


  Q    S S E  E  E  E  E     Q    S S E  E  E  E  E   
--------------------------|--------------------------|
--------------------------|--------------------------|
--------------------------|--------------------------|
--2--------2-----2--0-----|--2--------2-----2--0-----|
--2--------2-----2--0-----|--2--------2-----2--0-----|
--2--------2-----2--0-----|--2--------2-----2--0-----|


  Q    E  E  E  E  Q          Bridge  
-------------------------||--------------------------|
-------------------------||--------------------------|
------------------------*||*-------------------------|
--2----5--4--5--4--0----*||*--3-----2--------0-------|
--2----5--4--5--4--0-----||---------------3----------|
--2----5--4--5--4--0-----||--------------------------|


  E  E  E  E  E  E  Q     4x   Q    S S E  E  E  E  E   
--------------------------||---------------------------|
--------------------------||---------------------------|
--------------1----------*||*--------------------------|
--3-----2--------3-------*||*--2--------2-----2--0-----|
--------------------------||---2--------2-----2--0-----|
--------------------------||---2--------2-----2--0-----|


  Q    S S E  E  E  E  E     Q    S S E  E  E  E  E   
--------------------------|--------------------------|
--------------------------|--------------------------|
--------------------------|--------------------------|
--2--------2-----2--0-----|--2--------2-----2--0-----|
--2--------2-----2--0-----|--2--------2-----2--0-----|
--2--------2-----2--0-----|--2--------2-----2--0-----|


                              Refrain                       
  Q    E  E  E  E  Q          E       E  E  E  E  E  E  E   
-------------------------||--------------------------------|
-------------------------||--------------------------------|
------------------------*||*-------------------------------|
--2----5--4--5--4--0----*||*--2-------2--2--2--2--2--2--2--|
--2----5--4--5--4--0-----||---2-------2--2--2--2--2--2--2--|
--2----5--4--5--4--0-----||---2-------2--2--2--2--2--2--2--|


  E  E  E  E  E  E  E  E     E  E  E  E  E  E  E  E   
--------------------------|--------------------------|
--------------------------|--------------------------|
--------------------------|--------------------------|
--2--2--2--2--2--2--2--2--|--5--5--5--5--5--5--5--5--|
--2--2--2--2--2--2--2--2--|--5--5--5--5--5--5--5--5--|
--2--2--2--2--2--2--2--2--|--5--5--5--5--5--5--5--5--|


  E  E  E  E  E  E  E  E       W                     Q    S S E  E  E  E  E   
---------------------------||-------------------||---------------------------|
---------------------------||-------------------||---------------------------|
--------------------------*||-------------------||*--------------------------|
--4--4--4--0--0--0--0--0--*||--0----------------||*--2--------2-----2--0-----|
--4--4--4--0--0--0--0--0---||--0----------------||---2--------2-----2--0-----|
--4--4--4--0--0--0--0--0---||--0----------------||---2--------2-----2--0-----|


  Q    S S E  E  E  E  E     Q    S S E  E  E  E  E   
--------------------------|--------------------------|
--------------------------|--------------------------|
--------------------------|--------------------------|
--2--------2-----2--0-----|--2--------2-----2--0-----|
--2--------2-----2--0-----|--2--------2-----2--0-----|
--2--------2-----2--0-----|--2--------2-----2--0-----|


                              Refrain                       
  Q    E  E  E  E  Q          E       E  E  E  E  E  E  E   
-------------------------||--------------------------------|
-------------------------||--------------------------------|
------------------------*||*-------------------------------|
--2----5--4--5--4--0----*||*--2-------2--2--2--2--2--2--2--|
--2----5--4--5--4--0-----||---2-------2--2--2--2--2--2--2--|
--2----5--4--5--4--0-----||---2-------2--2--2--2--2--2--2--|


  E  E  E  E  E  E  E  E     E  E  E  E  E  E  E  E   
--------------------------|--------------------------|
--------------------------|--------------------------|
--------------------------|--------------------------|
--2--2--2--2--2--2--2--2--|--5--5--5--5--5--5--5--5--|
--2--2--2--2--2--2--2--2--|--5--5--5--5--5--5--5--5--|
--2--2--2--2--2--2--2--2--|--5--5--5--5--5--5--5--5--|


  E  E  E  E  E  E  E  E        Q    S S E  E  E  E  E   
---------------------------||---------------------------|
---------------------------||---------------------------|
--------------------------*||*--------------------------|
--4--4--4--0--0--0--0--0--*||*--2--------2-----2--0-----|
--4--4--4--0--0--0--0--0---||---2--------2-----2--0-----|
--4--4--4--0--0--0--0--0---||---2--------2-----2--0-----|


  Q    S S E  E  E  E  E     Q    S S E  E  E  E  E   
--------------------------|--------------------------|
--------------------------|--------------------------|
--------------------------|--------------------------|
--2--------2-----2--0-----|--2--------2-----2--0-----|
--2--------2-----2--0-----|--2--------2-----2--0-----|
--2--------2-----2--0-----|--2--------2-----2--0-----|


  Q    E  E  E  E  Q                                                       
-------------------------||-------|-------|-------|-------|-------|-------|
-------------------------||-------|-------|-------|-------|-------|-------|
------------------------*||-------|-------|-------|-------|-------|-------|
--2----5--4--5--4--0----*||-------|-------|-------|-------|-------|-------|
--2----5--4--5--4--0-----||-------|-------|-------|-------|-------|-------|
--2----5--4--5--4--0-----||-------|-------|-------|-------|-------|-------|
Добавлено: 27.12.2013
Другие материалы по этой песне:
  • Аккорды и текст

Страница создана 27.12.2013
http://primanota.ru/misc-unsigned-bands/girugamesh-moujou-no-koushin-chords.htm
Привет, Гость.
Предлагаем пройти революционный курс по гитаре.
Подарок от PrimaNota.Ru, забирай!