PrimaNota.ru - самый крупный в мире бесплатный архив песенных текстов, аккордов, табулатур и нот


Misc Unsigned Bands - Girugamesh - Fukai No Yami - таба

Регистрация Запомнить меня
Войти через:  Facebook Google Twitter Vk Yandex Mail.ru

Misc Unsigned Bands - Girugamesh - Fukai No Yami - таба

Печатать
Просмотров: 42
Fumashi
                                                        Refrain                
       E  E  E  H        E     Q.     Q.     Q     8x   Q.      Q    E   Q     
D#||------------------------|----------------------||-------------------------|
A#||------------------------|--0-------------------||-------------------------|
F#||*--------0--------------|---------------------*||*--9-------9----9--------|
C#||*-----------4--------L--|---------4-----------*||*--9-------9----9--10----|
G#||------2-----------------|----------------------||---7-------7----7--10----|
D#||---0--------------------|----------------------||--------------------8----|


   Q     E   Q.      Q       Q    Q.     Q.      4x
--------------------------|----------------------||
--------------------------|----------------------||
--------------------------|---------------------*||
--10----10--12------12----|--9----9------9------*||
--10----10--12------12----|--9----9------9-------||
---8-----8--10------10----|--7----7------7-------||


   bridge                             Solo                                                       
   E      E   E   E   Q     E   E     E    Q    Q     Q    E   
-----------------------------------|--------------------------|
-----------------------------------|--------------------------|
-----------------------------------|--------------------------|
---10----10--10---10--10---10--10--|--------------------------|
---9------9---9---9---9-----9---9--|-----5~7----9----10-------|
---7------7---7---7---7-----7---7--|--------------------------|


   Q    Q    H           Q    Q    Q    E  E     E  Q    H        E   
----------------------|-----------------------|----------------------|
----------------------|-----------------------|----------------------|
----------------------|-----------------------|----------------------|
----------------------|--7----5----4----5--4--|--L----------------9--|
--10----9----5--------|-----------------------|-----5----2-----------|
----------------------|-----------------------|----------------------|


  E  Q    E  Q    Q        E  Q    Q    Q.        E  Q.     H         
------------------------|----------------------|---------------------|
------------------------|----------------------|---------------------|
------------------------|----------------------|---------------------|
--L--4----4--5----5~----|--L--4----5----7------|--9--9------L--------|
------------------------|----------------------|---------------------|
------------------------|----------------------|---------------------|


   E   E   E   E   E   E   Q        Q     E   Q     E   E   E   
---------------------------------|-----------------------------|
--20--20--19--19--19--20--20~----|--L----20--19----19--20--19--|
---------------------------------|-----------------------------|
---------------------------------|-----------------------------|
---------------------------------|-----------------------------|
---------------------------------|-----------------------------|


   H         Q     E   E      Q     Q      Q     Q     
------------19------------|---------------------------|
------------------19--19--|--20----20~----19----20----|
--19----------------------|---------------------------|
--------------------------|---------------------------|
--------------------------|---------------------------|
--------------------------|---------------------------|


                              Refrain                                           
   Q     Q     H              Q.      Q    E   Q        Q     E   Q.      Q     
--------19----19~--------||-------------------------|--------------------------|
--22---------------------||-------------------------|--------------------------|
-------------------------||*--9-------9----9--------|--------------------------|
-------------------------||*--9-------9----9--10----|--10----10--12------12----|
-------------------------||---7-------7----7--10----|--10----10--12------12----|
-------------------------||--------------------8----|---8-----8--10------10----|


  Q    Q.     Q.      4x                                                        
----------------------|
----------------------|
---------------------*|
--9----9------9------*|
--9----9------9-------|
--7----7------7-------|
Добавлено: 06.12.2013
Другие материалы по этой песне:
  • Аккорды и текст

Страница создана 06.12.2013
http://primanota.ru/misc-unsigned-bands/girugamesh-fukai-no-yami-chords.htm
Привет, Гость.
Предлагаем пройти революционный курс по гитаре.
Подарок от PrimaNota.Ru, забирай!