PrimaNota.ru - самый крупный в мире бесплатный архив песенных текстов, аккордов, табулатур и нот


Misc Unsigned Bands - Genuine Innocence - So What - таба

Регистрация Запомнить меня
Войти через:  Facebook Google Twitter Vk Yandex Mail.ru

Misc Unsigned Bands - Genuine Innocence - So What - таба

Печатать
Просмотров: 38
                        As recorded by Genuine Innocence


   Intro
    Q=140
   4/4
    Gtr I
||-----------------------|---------------------|----------------------|---------------------|
||o----------------------|---------------------|----------------------|---------------------|
||-------10------10------|-10------10------10--|------10------10------|-10------10------10--|
||----10------10------10-|------10------10-----|---10------10------10-|------10------10-----|
||o-8-------8-------8----|----8-------8--------|----------------------|---------------------|
||-----------------------|---------------------|-8-------8-------8----|----8-------8--------|


|-------------------------|-----------------------|----------------------|------------------------||
|-------------------------|-----------------------|----------------------|-----------------------o||
|-------10-------10-------|-10-------10-------10--|------10------10------|-10------10-------------||
|----10-------10-------10-|-------10-------10-----|---10------10------10-|------10---------10-----||
|-------------------------|-----------------------|----------------------|--------------10-------o||
|-10-------10-------10----|----10-------10--------|-6-------6-------6----|----6-------8-----------||


   Verse
||--------------------------|-------------------------|-----------------|-----------------|
||o-10-10-10-10-10-10-10-10-|-10-10-10-10-10-10-10-10-|-5-5-5-5-5-5-5-5-|-5-5-5-5-5-5-5-5-|
||--10-10-10-10-10-10-10-10-|-10-10-10-10-10-10-10-10-|-5-5-5-5-5-5-5-5-|-5-5-5-5-5-5-5-5-|
||--10-10-10-10-10-10-10-10-|-10-10-10-10-10-10-10-10-|-5-5-5-5-5-5-5-5-|-5-5-5-5-5-5-5-5-|
||o--8--8--8--8--8--8--8--8-|--8--8--8--8--8--8--8--8-|-3-3-3-3-3-3-3-3-|-3-3-3-3-3-3-3-3-|
||--------------------------|-------------------------|-----------------|-----------------|


|-----------------|-----------------|-----------------|---------------------||
|-3-3-3-3-3-3-3-3-|-3-3-3-3-3-3-3-3-|-1-1-1-1-1-1-1-1-|-1-1-1-1-1-1-1-1----o||
|-2-2-2-2-2-2-2-2-|-2-2-2-2-2-2-2-2-|-3-3-3-3-3-3-3-3-|-3-3-3-3-3-3-3-3-----||
|-0-0-0-0-0-0-0-0-|-0-0-0-0-0-0-0-0-|-3-3-3-3-3-3-3-3-|-3-3-3-3-3-3-3-3-----||
|-0-0-0-0-0-0-0-0-|-0-0-0-0-0-0-0-0-|-1-1-1-1-1-1-1-1-|-1-1-1-1-1-1-1-1----o||
|-----------------|-----------------|-----------------|---------------------||


   Chorus
||--------------------------|-------------------------|-----------------|-------------------|
||o-------------------------|-------------------------|-----------------|-------------------|
||--10-10-10-10-10-10-10-10-|-10-10-10-10-10-10-10-10-|-5-5-5-5-5-5-5-5-|-5-5-5-5--5--5-5-5-|
||---x--x--x--x--x--x--x--x-|--x--x--x--x--x--x--x--x-|-x-x-x-x-x-x-x-x-|-x-x-x-x--x--x-x-x-|
||o--8--8--8--8--8--8--8--8-|--8--8--8--8--8--8--8--8-|-3-3-3-3-3-3-3-3-|-3-3-3-3--3--3-3-3-|
||--------------------------|-------------------------|-----------------|-------------------|
|
|   Gtr II
||--------------------------|-------------------------|-----------------|-------------------|
||o-------------------------|----------------10-------|-----------------|-------------------|
||--10----10----10----10----|-10----10----------10----|-5---5---5---5---|-7-7-7-5-(5)-------|
||-----10----10----10----10-|----10----10-------------|---5---5---5---5-|-------------8-5---|
||o-------------------------|-------------------------|-----------------|-------------------|
||--------------------------|-------------------------|-----------------|-------------------|


|-----------------|-------------------|-----------------|------------------||-----------|-------------|-----|
|-----------------|-------------------|-----------------|-----------------o||-----------|-------------|-----|
|-7-7-7-7-7-7-7-7-|-7-7-7--7--7-7-7-7-|-3-3-3-3-3-3-3-3-|-3-3-3-3-3-3-3-3--||-10--------|-(10)--------|-----|
|-x-x-x-x-x-x-x-x-|-x-x-x--x--x-x-x-x-|-x-x-x-x-x-x-x-x-|-x-x-x-x-x-x-x-x--||--x--------|--(x)--------|-----|
|-5-5-5-5-5-5-5-5-|-5-5-5--5--5-5-5-5-|-1-1-1-1-1-1-1-1-|-1-1-1-1-1-1-1-1-o||--8--------|--(8)--------|-----|
|-----------------|-------------------|-----------------|------------------||-----------|-------------|-----|
|
|-----------------|-------------------|-----------------|------------------||-----------|-------------|-----|
|-3---3---3---3---|-3-3-1-(1)---------|-----------------|-----------------o||-----------|-------------|-----|
|---2---2---2---2-|-----------3-3-3-3-|-3---3---3---3---|-5-----5---5---5--||-10--------|-(10)--------|-----|
|-----------------|-------------------|---3---3---3-----|-----5---5---5----||--x--------|--(x)--------|-----|
|-----------------|-------------------|-----------------|-----------------o||--8--------|--(8)--------|-----|
|-----------------|-------------------|-----------------|------------------||-----------|-------------|-----|


 Fill
|------------|----------------------|-----------|-------------------|
|-^10--------|----------------------|-^5--------|-------------------|
|-^10--------|----------------------|-^5--------|-------5-(5)-------|
|-^10--------|-----10-8-(8)-7-------|-^5--------|-----5-------5-----|
|-^-8--------|-8-8------------8-(8)-|-^3--------|-3-3-----------3-4-|
|------------|----------------------|-----------|-------------------|


|-----------|-------------------|-----------|-------------------|
|-^3--------|-------------------|-^1--------|-------------------|
|-^2--------|-------------------|-^3--------|-------------------|
|-^0--------|-------7-5-3-(3)-3-|-^3--------|-------3-2---------|
|-^0--------|-5-5-5-------------|-^1--------|-1-1-1-----3-(3)-0-|
|-----------|-------------------|-----------|-------------------|


 Solo
|------------------|-----------------|-----------------|-----------------|
|------------------|-----------------|-----------------|-----------------|
|------------------|-----------------|-----------------|-----------------|
|--8-7-5-3-3-3-3-3-|-3-5-5-7-7-8-7-7-|-8-7-5-3-3-3-3-3-|-3-5-5-7-7-8-7---|
|------------------|-----------------|-----------------|---------------5-|
|------------------|-----------------|-----------------|-----------------|
|
| Gtr II
|------------------|-----------------|-----------------|-----------------|
|------------------|-----------------|-----------------|-----------------|
|-10---------------|-5---------------|-7---------------|-3---------------|
|-10---------------|-5---------------|-7---------------|-3---------------|
|--8---------------|-3---------------|-5---------------|-1---------------|
|------------------|-----------------|-----------------|-----------------|


|-----------------|-----------------|------------------|-------------------|
|-----------------|-----------------|------------------|-------------------|
|-----------------|-----------------|------5---------5-|-------7-----------|
|-------7-5-5-3-3-|-3-3-7-7-8-7-7-5-|--5-3---5-3-5-3---|-3-5-5---5-3-5-(5)-|
|-5-5-5-----------|-----------------|------------------|-------------------|
|-----------------|-----------------|------------------|-------------------|
|
|-----------------|-----------------|------------------|-------------------|
|-----------------|-----------------|------------------|-------------------|
|-7---------------|-5---------------|-10---------------|-3-----------------|
|-7---------------|-5---------------|-10---------------|-3-----------------|
|-5---------------|-3---------------|--8---------------|-1-----------------|
|-----------------|-----------------|------------------|-------------------|


  Gtr III
|-------------------------|-----------------|-----------------|-----------------|
|-------------------------|-----------------|-----------------|-----------------|
|-------------------------|-----------------|-----------------|-----------------|
|--8--7--5--3--3--3--3--3-|-3-5-5-7-7-8-7-7-|-8-7-5-3-3-3-3-3-|-3-5-5-7-7-8-7---|
|-------------------------|-----------------|-----------------|---------------5-|
|-------------------------|-----------------|-----------------|-----------------|
|
| Gtr IV
|-------------------------|-----------------|-----------------|-----------------|
|-10----------------------|-5---------------|-6---------------|-1---------------|
|-10-10-10-10-10-10-10-10-|-5-5-5-5-5-5-5-5-|-7-7-7-7-7-7-7-7-|-3-3-3-3-3-3-3-3-|
|-10-10-10-10-10-10-10-10-|-5-5-5-5-5-5-5-5-|-7-7-7-7-7-7-7-7-|-3-3-3-3-3-3-3-3-|
|--8--8--8--8--8--8--8--8-|-3-3-3-3-3-3-3-3-|-5-5-5-5-5-5-5-5-|-1-1-1-1-1-1-1-1-|
|-------------------------|-----------------|-----------------|-----------------|


|-----------------|-----------------|-------------------------|-------------------|
|-----------------|-----------------|-------------------------|-------------------|
|-----------------|-----------------|--------5--------------5-|-------7-----------|
|-------7-5-5-3-3-|-3-3-7-7-8-7-7-5-|--5--3-----5--3--5--3----|-3-5-5---5-3-5-(5)-|
|-5-5-5-----------|-----------------|-------------------------|-------------------|
|-----------------|-----------------|-------------------------|-------------------|
|
|-----------------|-----------------|-------------------------|-------------------|
|-6---------------|-5---------------|-10----------------------|-1-----------------|
|-7-7-7-7-7-7-7-7-|-5-5-5-5-5-5-5-5-|-10-10-10-10-10-10-10-10-|-3-3-3-3-3-3-3--3--|
|-7-7-7-7-7-7-7-7-|-5-5-5-5-5-5-5-5-|-10-10-10-10-10-10-10-10-|-3-3-3-3-3-3-3--3--|
|-5-5-5-5-5-5-5-5-|-3-3-3-3-3-3-3-3-|--8--8--8--8--8--8--8--8-|-1-1-1-1-1-1-1--1--|
|-----------------|-----------------|-------------------------|-------------------|


   Chorus
||--------------------------|-------------------------|-----------------|-------------------|-----------------|-------------------|
||o-------------------------|-------------------------|-----------------|-------------------|-----------------|-------------------|
||--10-10-10-10-10-10-10-10-|-10-10-10-10-10-10-10-10-|-5-5-5-5-5-5-5-5-|-5-5-5-5--5--5-5-5-|-7-7-7-7-7-7-7-7-|-7-7-7--7--7-7-7-7-|
||---x--x--x--x--x--x--x--x-|--x--x--x--x--x--x--x--x-|-x-x-x-x-x-x-x-x-|-x-x-x-x--x--x-x-x-|-x-x-x-x-x-x-x-x-|-x-x-x--x--x-x-x-x-|
||o--8--8--8--8--8--8--8--8-|--8--8--8--8--8--8--8--8-|-3-3-3-3-3-3-3-3-|-3-3-3-3--3--3-3-3-|-5-5-5-5-5-5-5-5-|-5-5-5--5--5-5-5-5-|
||--------------------------|-------------------------|-----------------|-------------------|-----------------|-------------------|
|
||--------------------------|-------------------------|-----------------|-------------------|-----------------|-------------------|
||o-------------------------|----------------10-------|-----------------|-------------------|-3---3---3---3---|-3-3-1-(1)---------|
||--10----10----10----10----|-10----10----------10----|-5---5---5---5---|-7-7-7-5-(5)-------|---2---2---2---2-|-----------3-3-3-3-|
||-----10----10----10----10-|----10----10-------------|---5---5---5---5-|-------------8-5---|-----------------|-------------------|
||o-------------------------|-------------------------|-----------------|-------------------|-----------------|-------------------|
||--------------------------|-------------------------|-----------------|-------------------|-----------------|-------------------|


|-----------------|------------------||-----------------|-----------------|-----------|-------------|-------------|-------------------
|-----------------|-----------------o||-----------------|-----------------|-----------|-------------|-------------|-------------------
|-3-3-3-3-3-3-3-3-|-3-3-3-3-3-3-3-3--||-3-3-3-3-3-3-3-3-|-3-3-3-3-3-3-3-3-|-10--------|-(10)--------|-(10)--------|-10\---------------
|-x-x-x-x-x-x-x-x-|-x-x-x-x-x-x-x-x--||-3-3-3-3-3-3-3-3-|-3-3-3-3-3-3-3-3-|-10--------|-(10)--------|-(10)--------|-10\---------------
|-1-1-1-1-1-1-1-1-|-1-1-1-1-1-1-1-1-o||-1-1-1-1-1-1-1-1-|-1-1-1-1-1-1-1-1-|--8--------|--(8)--------|--(8)--------|--8\---------------
|-----------------|------------------||-----------------|-----------------|-----------|-------------|-------------|-------------------
|
|-----------------|------------------||-----------------|-----------------|-----------|-------------|-------------|-------------------
|-----------------|-----------------o||-----------------|-----------------|-----------|-------------|-------------|-------------------
|-3---3---3---3---|-5-----5---5---5--||-3-3-3-3-3-3-3-3-|-7-7-7-7-7-7-7-7-|-10--------|-(10)--------|-(10)--------|-10\---------------
|---3---3---3-----|-----5---5---5----||-x-x-x-x-x-x-x-x-|-x-x-x-x-x-x-x-x-|--x--------|--(x)--------|--(x)--------|--x\---------------
|-----------------|-----------------o||-1-1-1-1-1-1-1-1-|-5-5-5-5-5-5-5-5-|--8--------|--(8)--------|--(8)--------|--8\---------------
|-----------------|------------------||-----------------|-----------------|-----------|-------------|-------------|-------------------



Добавлено: 28.10.2013
Другие материалы по этой песне:
  • Аккорды и текст

Страница создана 28.10.2013
http://primanota.ru/misc-unsigned-bands/genuine-innocence-so-what-chords.htm
Привет, Гость.
Предлагаем пройти революционный курс по гитаре.
Подарок от PrimaNota.Ru, забирай!