PrimaNota.ru - самый крупный в мире бесплатный архив песенных текстов, аккордов, табулатур и нот


Misc Unsigned Bands - Four Nights Gone - My Last Call - бас-таба, видео

Регистрация Запомнить меня
Войти через:  Facebook Google Twitter Vk Yandex Mail.ru

Misc Unsigned Bands - Four Nights Gone - My Last Call - бас-таба, видео

Печатать
Просмотров: 78
Уроки эстрадного вокала в Санкт-Петербурге
h: Hammer On
p: Pull Off
s: Slide
t: Triplet

Intro:
G|-----------------------------------|
D|-----------------------------------|
A|-2------4h5------------------------|
D|-----------5--------0-----s5-5-7---|

  Strum according to rhythm 
G|--------------------------------------------------|
D|--------------------------------------------------|
A|-2-2-2-22-2---------------------------------------|
D|----------------5-5-5-55-5--0-0-0-0-0---5-5-7-----|

*Verse:

G|--------------------------------------------------|
D|--------------------------------------------------|
A|-2-----------0-2-------------2-----------0-2-0----|
D|---4-5---2-5-----4-5--4-2-0----4-5---2-5-------5--|

Repeat X2


G|--------------------------------------------------|
D|-----------------------4-2-0----------------------|
A|-2---------4h5-2-------------2---------4h5-2-0----|
D|---4-5---2-------4-5-----------4-5---2---------5--|

Repeat x2

*Chorus:

G|--------------------------------------------------|
D|-----------11-------------7-------------0---------|
A|---------9--------------5-------------4-----------|
D|-9-9-9----9---9--5-5-5---5--5--0-0-0------0-5-5--7|

Repeat x2

*Repeat Verse*

*Repeat Chorus*

*Bridge:


G|--------------------------------------------------|
D|----------------5---------------------------------|
A|--------------5-----------------------------------|
D|-9-------5--------5--7------5-------0-------------|

Repeat 2x


*Pre-Chorus:

  Constantly strum according to rhythm. Add triplet before the next note, as indicated 
G|--------------------------------------------------|
D|--------------------------------------------------|
A|--------------------------------------------------|
D|-9----------9t-9t--5----0------0t---0t------------|


G|--------------------------------------------------|
D|--------------------------------------------------|
A|--------------------------------------------------|
D|-9----------9t-9t--5----0-------------------------|

Repeat Chorus to end of song
Добавлено: 26.08.2013
Другие материалы по этой песне:
  • Аккорды и текст

Страница создана 26.08.2013
http://primanota.ru/misc-unsigned-bands/four-nights-gone-my-last-call-chords.htm
Привет, Гость.
Предлагаем пройти революционный курс по гитаре.
Подарок от PrimaNota.Ru, забирай!