PrimaNota.ru - самый крупный в мире бесплатный архив песенных текстов, аккордов, табулатур и нот


Misc Unsigned Bands - Four Get Me A Nots - Beginning - таба, видео

Регистрация Запомнить меня
Войти через:  Facebook Google Twitter Vk Yandex Mail.ru

Misc Unsigned Bands - Four Get Me A Nots - Beginning - таба, видео

Печатать
Просмотров: 50
Hi guys ! this is my first time tabbing a song .
and I know no one has this whole song so someone had to do it !
this if for rhythm part
hmm , just figure out the strumming pattern by yourselves

ITS IN DROPPIITHH D


CHORUS
Want to change your situation but your pride is there
I know it must be petty but your pride is negative
With it you will never reach the top
E-------------------------------------------------------------------|
B---------5----------3---------8------------------------------------|
G---------4----------4---------9-------------7----------------------|
D---------5----------4---------9------7------7----------------------|
A---------3----------2---------7------7------5----------------------|
D-------------------------------------7-----------------------------|
repeat 3 times

Have you been aware of all ...........................................
......................... something that you keep
E------------------------------------------------------------------------|
B------------------------------------------------------------------------|
G----------------------------------9-------7--------5------7-------------|
D-------5------7-------9------10---9-------7--------5------7-------------|
A-------5------7-------9------10---7-------5--------3------5-------------|
D-------5------7-------9------10-----------------------------------------|
repeat 2 times

People will soon forget you........................................ ....
.................................... come back to  you
E--------------------------------------------------------------------|
B--------------------------------------------------------------------|
G--------5--------4--------------------7-----------------------------|
D--------5--------4--------7-----------7-----------------------------|
A--------3--------2--------7-----------5-----------------------------|
D--------------------------7-----------------------------------------|
repeat 2 times

CHORUS
‘Impossible no way' ........................you put it into action
Doesn't make a difference..................spark new start
E----------------------------------------------------------------|
B---------5----------3---------8---------------------------------|
G---------4----------4---------9-------------7-------------------|
D---------5----------4---------9------7------7-------------------|
A---------3----------2---------7------7------5-------------------|
D-------------------------------------7--------------------------|
 REPEAT 4 times

SOLO
E---------------------------------------------------------------------|
B-----5-----3-----8---------------------------------------------------|
G-----4-----4-----9-----------------7----------5-------7--------------|
D-----5-----4-----9--------7--------7----------5-------7--------------|
A-----3-----2-----7--------7--------5----------3-------5--------------|
D--------------------------7------------------------------------------|


Repeat CHORUS    x2 times

THE END OF THE VERY GOOD SONG FROM JAPAN

http://www.fourgetmeanots.net/
Добавлено: 08.11.2013
Другие материалы по этой песне:
  • Аккорды и текст

Страница создана 08.11.2013
http://primanota.ru/misc-unsigned-bands/four-get-me-a-nots-beginning-chords.htm
Привет, Гость.
Предлагаем пройти революционный курс по гитаре.
Подарок от PrimaNota.Ru, забирай!