PrimaNota.ru - самый крупный в мире бесплатный архив песенных текстов, аккордов, табулатур и нот


Misc Unsigned Bands - Forsak It All - Leeches On Aisle Four - бас-таба

Регистрация Запомнить меня
Войти через:  Facebook Google Twitter Vk Yandex Mail.ru

Misc Unsigned Bands - Forsak It All - Leeches On Aisle Four - бас-таба

Печатать
Просмотров: 53
The tuning is in Drop C. Anytime you see (12s0) that's just my dumb way of saying bass drop.




Intro:
|-----------------------------------------------------------------------------|
|-----------------------------------------------------------------------------|
|-----------------------------------------------------------------------------|
|0-00--8--10-7-0--00--8--10-7-0-0-0-0-0-0-0-0-8-8-8-8-10-10-7-7-0-0-0-0-0-0-0-|

|---------------------------------------------------------------------------|
|---------------------------------------------------------------------------|
|---------------------------------------------------------------------------|
|0-8-8-8-8-10-7-------------------------------------------------------------|

Verse:x2
|-----------------------------------------------------------------------------|
|-----------------------------------------------------------------------------|
|------------------------------------------------------------------8p7-7------|
|-00-0-00-0-0-00-0-00-8-888-8-8-88-8h10--00-0-00-0-00-0-00-8-88-8-8---10-10-7-|

Pre-Chorus:
|-----------------------------------------------------------------------------|
|-----------------------------------------------------------------------------|
|-----------------------------------------------------------------------------|
|8-8s10-10h12-12p10-8-8s10-10h12--8-8-8-8-10-10-10-10-12-12-12-12-10-10-10-10-|

|---------------------------------------------------------------------------|
|---------------------------------------------------------------------------|
|---------------------------------------------------------------------------|
|-8-8-8-8-7-7-7-7-5-5-5p3-5-5-5h7-------------------------------------------|

Chorus:x2
|---------------------------------------------------------------------------|
|---------------------------------------------------------------------------|
|-8--8h10-7--7h8-5--5p3-5--5h7--8--8h10-7--7h8-12-12h13-10--10h12p10--------|
|---------------------------------------------------------------------------|

Verse:
|---------------------------------------------------------------------------|
|---------------------------------------------------------------------------|
|---------------------------------------------------------------------------|
|-8-7-0~--8-8-0~--8-7-0~--8-8-0~--1~----------------------------------------|

Breakdown 1:
|---------------------------------------------------------------------------|
|---------------------------------------------------------------------------|
|---------------------------------------------------------------------------|
|12s0--0-000--0-000-0-0--0-0-00-0--0-00-0-0-0--000-0-0-0--00-0-0-00-0-0-0---|

(Pre-Chorus)

(Chorus)

Final Verse:
|-----------------------------------------------------------------------------|
|-----------------------------------------------------------------------------|
|-----------------------------------------------------------------------------|
|-0~--8-7-5--5h7-0~--8-7-10--0~--8-7-5--5h7--0~--8-7-10--0--8--7-7-7-0--8--7--|

Breakdown 2:
|-----------------------------------------------------------------------------|
|-----------------------------------------------------------------------------|
|-----------------------------------------------------------------------------|
|12s0-0-0-0--00-8-7-5--00-00-0-0-0-00-8-10-7--00-00-0-0-00-8-7-5-00-00-0-0-8--|

|---------------------------------------------------------------------------|
|---------------------------------------------------------------------------|
|---------------------------------------------------------------------------|
|-10-7--(rest one measure)--0s12s0-00-00-0-0-0-8-7-5--00-00-0-0-0-8-10-7-0--|
Добавлено: 26.08.2013
Другие материалы по этой песне:
  • Аккорды и текст

Страница создана 26.08.2013
http://primanota.ru/misc-unsigned-bands/forsak-it-all-leeches-on-aisle-four-chords.htm
Привет, Гость.
Предлагаем пройти революционный курс по гитаре.
Подарок от PrimaNota.Ru, забирай!