PrimaNota.ru - самый крупный в мире бесплатный архив песенных текстов, аккордов, табулатур и нот


Misc Unsigned Bands - Forest Drive - The Call - таба

Регистрация Запомнить меня
Войти через:  Facebook Google Twitter Vk Yandex Mail.ru

Misc Unsigned Bands - Forest Drive - The Call - таба

Печатать
Просмотров: 21
Stave 1:

E|--------------------------------------12----------14------15------|
B|--12----------13----------15--------------------------------------|
G|------12--12------12--12------12--12------12--12------12------12--|
D|------------------------------------------------------------------|
A|------------------------------------------------------------------|
E|------------------------------------------------------------------|

Stave 2:

E|----------------------------------------12----------15------14------|
B|----12----------13----------15--------------------------------------|
G|--------12--12------12--12------12--12------12--12------12------12--|
D|--------------------------------------------------------------------|
A|--------------------------------------------------------------------|
E|--------------------------------------------------------------------|

Stave 3:

E|----------------------------------------12----------14------15------|
B|----12----------13----------15--------------------------------------|
G|--------12--12------12--12------12--12------12--12------12------12--|
D|--------------------------------------------------------------------|
A|--------------------------------------------------------------------|
E|--------------------------------------------------------------------|

Stave 4:

E|--14----------15----------17----------15----------14------15------|
B|------------------------------------------------------------------|
G|------12--12------12--12------12--12------12--12------12------12--|
D|------------------------------------------------------------------|
A|------------------------------------------------------------------|
E|------------------------------------------------------------------|
Добавлено: 17.10.2015
Другие материалы по этой песне:
  • Аккорды и текст

Страница создана 17.10.2015
http://primanota.ru/misc-unsigned-bands/forest-drive-call-chords.htm
Привет, Гость.
Предлагаем пройти революционный курс по гитаре.
Подарок от PrimaNota.Ru, забирай!