PrimaNota.ru - самый крупный в мире бесплатный архив песенных текстов, аккордов, табулатур и нот


Misc Unsigned Bands - For The Fallen Dreams - Brothers In Arms - таба

Регистрация Запомнить меня
Войти через:  Facebook Google Twitter Vk Yandex Mail.ru

Misc Unsigned Bands - For The Fallen Dreams - Brothers In Arms - таба

Печатать
Просмотров: 52
For the Fallen Dreams
Brothers In Arm
Changes 2008

Tabbed By: Jonathan Cullis

Note: I could not put all of the timing in the tab so
      you will need to listen to the song for the timing

120 BPM

Tuning: Drop A#

|------------------------------------------|
|-------------------------------9-8---8-9--|
|-----------------------------------8------|
|--0---------------------------------------| x2 ( ) - Only play second time
|--0------(000000-0--0--0--0)--------------|
|--0------(000000-0--0--0--0)--------------|
           x x xxxx x  x  x  x

|----------------------------------------------------------------|
|----------------------------------------------11-8---9-8---9-8--|
|---------------------------------------------------8-----8------|
|--0---------------7------------7--------------------------------|  x4
|--0---------------8------------8--------------------------------|
|--0---0000-0-0-00---000000-0-0---0000-0-0-000-------------------|
       xxxx x x xx   xxxxxx x x   xxxx x x xxx

|------------------------------------|
|------------------------------------|
|------------------------------------|
|--0-------Drum Fill-----------------|
|--0---------------------------------|
|--0---------------------------------|

|--------------------------------------------------------------|
|------------------9-8---9-8-------------------8h11p8---9-8-4--|
|----------------------8-----8------------------------8--------|
|--0----------7-7---------------0----------7-7-----------------| x4
|--0----------8-8---------------0----------8-8-----------------|
|--0--000-0-0-------------------0--000-0-0---------------------|
      xxx x x                      xxx x x

|-------------------------------------------------|
|-------------------------------------------------|
|-------------------------------------------------|
|-------------------------------------------------| x4
|--0-----------------3/5---5/7/8\7------------\1--|
|--0-0-0-0-0-0-0-0-0-----0------------------------|
     x x x x x x x x     x

Breakdown
|--------------------------------------------------|
|--------------------------------------------------|
|--------------------------------------------------|
|--------------------------------------------------| x2
|-------------------------------------------1-1-0--|
|--0-0-0-0-000-0-0-0-0-0-000-0-0-0-0-0-000--1-1-0--|
   x x x x xxx x x x x x xxx x x x x x xxx  

|------------------------------------------------|
|------------------------------------------------|
|------------------------------------------------|
|------------------------------------------------| x2
|-------------------1-1--------------------------|
|--1^-0-0-0-0-0-0-0-1-1-0-0-0-0-0-0-3-1-0-1-3-4--|
      x x x x x x x       x x x x x 

|-------------------------------------|
|--------------------11-8---9-8--9-8--|
|------------------------8-----8------|
|-------------------------------------|
|-------------------------------------|
|--1^-0-0-0-0-0-0-0-------------------|
        x x x x x x 

|----------------------------------------------------------------|
|----------------------------------------------11-8---9-8---9-8--|
|---------------------------------------------------8-----8------|
|--0---------------7------------7--------------------------------|  x4
|--0---------------8------------8--------------------------------|
|--0---0000-0-0-00---000000-0-0---0000-0-0-000-------------------|
       xxxx x x xx   xxxxxx x x   xxxx x x xxx

|--------------|
|--------------|
|--------------|
|--0-----------|
|--0-----------|
|--0-----------|



Добавлено: 27.09.2013
Другие материалы по этой песне:
  • Аккорды и текст

Страница создана 27.09.2013
http://primanota.ru/misc-unsigned-bands/for-the-fallen-dreams-brothers-in-arms-chords.htm
Привет, Гость.
Предлагаем пройти революционный курс по гитаре.
Подарок от PrimaNota.Ru, забирай!