PrimaNota.ru - самый крупный в мире бесплатный архив песенных текстов, аккордов, табулатур и нот


Misc Unsigned Bands - Flippityfloops Original Material - Monolith - таба

Регистрация Запомнить меня
Войти через:  Facebook Google Twitter Vk Yandex Mail.ru

Misc Unsigned Bands - Flippityfloops Original Material - Monolith - таба

Печатать
Просмотров: 37
MONOLITH TABS FOR BILLY AND ROBERT

CHORUS (Low End) (Tremelo)

e)--------------------------------------------|
B)--------------------------------------------|
G)--------------------------------------------|
D)--------------------------------------------|
A)-------2-3-2------------2-3-2-3-5-----------|
D)--2----------5---0---2------------5--7-0----|

----------------------------------------------|
----------------------------------------------|
----------------------------------------------|
----------------------------------------------|
------2-3-2------------2-3-2-3-5--------------|
-2----------5---0---2------------5-7-0-7------|

CHORUS PART 2 (Tremelo) (numbers grouped together are double digit frets)

e)--------------------------------------------------------------------------|
B)--------------------------------------------------------------------------|
C)--------------------------------------------------------------------------|
D)--------------------------------------------------------------------------|
A)--17-----13-15-12----15-13-12-10----13-12-10-8---7---5-----7-8-7---3---1--|
D)--------------------------------------------------------------------------|

-----------------------------------------------------------------------------|
-----------------------------------------------------------------------------|
-----------------------------------------------------------------------------|
---------------0-------------------------------------------------------------|
-4-3-1-0-------0--17-----13-15-12----15-13-12-10----13-12-10-8---7---5-----7-|
-----------5-3-0-------------------------------------------------------------|
               (Let Low D Ring)
                                   (Into Groove)
---------------------------------  -------------|
---------------------------------  -------------|
---------------------------------  -------------|
---------------------------------  -----------5-|
---5-----7-8-7---3---1---4-3-1-0-  -1-0-------5-|
---------------------------------  -----5-3-2-5-|
                                              (555 is beginning of groove,
                                              see "Groove" for continuation)

(Into Solo Riff)

-------------|
-------------|
-------------|
-------------|
-1-0-------8-|(8 is beginning of solo riff, see "Solo Riff" for continuation)
-----5-3-2---|

GROOVE (Q=10) (grouped numbers ARE NOT double digit frets)
                                                  1st & Second Ending
e)------------------------------------------------|-------------------------|
B)------------------------------------------------|-------------------------|
G)------------------------------------------------|-------------------------|
D)-5-5-555-8-8-888-333333/QQQ/888-5-5-555-8-8-888-|-333333222111------------|
A)-5-5-555-8-8-888-333333/QQQ/888-5-5-555-8-8-888-|-333333222111------------|
D)-5-5-555-8-8-888-333333/QQQ/888-5-5-555-8-8-888-|-333333222111------------|
       ...     ...                    ...     ...

GROOVE Second Ending Going Into First Fast Riff

e)--------------|
B)--------------|
G)--------------|
D)-333333555666-|
A)-333333555666-|
D)-333333555666-|

SOLO RIFF (Tremelo) (Q=10, X=11, Y=13)

e)------------------------------------------------------------------------|
B)------------------------------------------------------------------------|
G)------------------------------------------------------------------------|
D)------------------------------------------------------------------------|
A)-8-------9---6---X-------9---6---8-------9---6---4-----6-3-------8------|
D)------------------------------------------------------------------------|

----------------------------------------------------------|
----------------------------------------------------------|
----------------------------------------------------------|
--------------------------------------------------------3-|
-Q---6--YX-------Q---6--Y8-------Q---6--4-----6-3-------3-|
----------------------------------------------------8-6-3-|

1st INTRICATE RIFF BACKUP (Tremelo) (Q=10, X=11, A=13, B=16)

e)---------------------------------------------------------------------|
B)---------------------------------------------------------------------|
G)---------------------------------------------------------------------|
D)---------------------------------------------------------------------|
A)------Q--------Q-------8--------8-------Q--------Q-------5--------5--|
D)-Q-AQ--Q-AQ-AQ--Q-8-X8--8-X8-X8--8-Q-AQ--Q-AQ-AQ--Q-5-85--5-85-85--5-|

e)---------------------------------------------------------------------|
B)---------------------------------------------------------------------|
G)---------------------------------------------------------------------|
D)---------------------------------------------------------------------|
A)------8--------8-------A--------A-------8--------8-------5--------5--|
D)-8-X8--8-X8-X8--8-A-BA--A-BA-BA--A-8-X8--8-X8-X8--8-5-85--5-85-85--5-|

Heavy Tremelo Bridge (Repeat as many times as necessary)

e)------------
B)------------
G)------------
D)------------
A)------------
D)-11-10-11-8-

3RD Instricate Riff (all tremelo except chords) (Q=10)

e)-----------------------------------------------------------------|
B)-----------------------------------------------------------------|
G)-----------------------------------------------------------------|
D)-7---------------7---------------7-------------------------------|
A)-7---------------7---------------7-------------------------------|
D)-7-7-5-7-8-7-5-7-7-7-5-7-8-Q-8-7-7-7-5-7-8-7-5-7-5-3-2-3-2-0-3-0-| x2
   .               .               .
(let palm mute ring for a second)

Ending Slow Section Backup

e)---------|
B)---------|
G)---------|
D)-9-7-5-4-|
A)-9-7-5-4-|
D)-9-7-5-4-| x2

(xxx=triplet)
e)--------------------------------------------------|
B)--------------------------------------------------|
G)--------------------------------------------------|
D)-9------------7------------5------------4---------|
A)-9------------7------------5------------4---------|
D)-9-999-999----7-777-777----5-555-555----4-444-444-|
  |_________|  |_________|  |_________|  |_________|
      x2           x2           x2           x2

e)---------------------------------------------------|
B)---------------------------------------------------|
G)---------------------------------------------------|
D)-9-9-9-9-9-9-7-7-7-9-9-9-5-5-5-9-9-9-4-4-4-0-0-4-2-|
A)-9-9-9-9-9-9-7-7-7-9-9-9-5-5-5-9-9-9-4-4-4-0-0-4-2-|
D)-9-9-9-9-9-9-7-7-7-9-9-9-5-5-5-9-9-9-4-4-4-0-0-4-2-|
     . .   . .   . .   . .   . .   . .   . .   .   ^(let ring for a second)
                                                    (into slow Chorus Riff 1)
Добавлено: 01.09.2013
Другие материалы по этой песне:
  • Аккорды и текст

Страница создана 01.09.2013
http://primanota.ru/misc-unsigned-bands/flippityfloops-original-material-monolith-chords.htm
Привет, Гость.
Предлагаем пройти революционный курс по гитаре.
Подарок от PrimaNota.Ru, забирай!