PrimaNota.ru - самый крупный в мире бесплатный архив песенных текстов, аккордов, табулатур и нот


Misc Unsigned Bands - Faunts - Out On A Limb - таба

Регистрация Запомнить меня
Войти через:  Facebook Google Twitter Vk Yandex Mail.ru

Misc Unsigned Bands - Faunts - Out On A Limb - таба

Печатать
Просмотров: 32
I havn't spent alot of time on this so far, so it might not be very accurate, but it 
give you an idea of how to play this song. It's also a ton of layers with guitar so it's 
to hear exactly who is playing what.


Intro (Part 1)

e|----------------|----------------|----------------|----------------|
b|----------------|----------------|----------------|----------------|
g|----------------|----------------|----------------|----------------|
d|----------------|----------------|----------------|----------------|
a|10---10-12--10--|9-----------12--|9-----------7---|5-----7-----5---|
E|----------------|----------------|----------------|----------------|

----------------|
----------------|
----------------|
----------------|
9-----7-----5---|
----------------|

(Part 2)

e|----------------|----------------|----------------|----------------|
b|----------------|----------------|----------------|----------------|
g|----------------|----------------|----------------|----------------|
d|----------------|----------------|----------------|----------------|
a|--10------12-10-|9-----------12--|9-----------7---|5-----7-----5---|
E|----------------|----------------|----------------|----------------|

----------------|
----------------|
----------------|
----------------|
14----12----9---|
----------------|

Play part 1 again and finish with:

e|----
b|----
g|----
d|----
a|----
E|7---


Chorus part 1/Guitar 1(?)

e|----------------|----------------|----------------|----------------|
b|----------------|----------------|----------------|----------------|
g|----------------|----------------|----------------|----------------|
d|----------------|----------------|----------------|----------------|
a|----------------|5---------------|------5---------|------------5---|
E|7-----5-----7---|------7-----5---|7-----------7---|5-----7---------|

----------------|
----------------|
----------------|
----------------|
9-----7-----5---|
----------------|


Now here is the hard part. It's hard to hear if it's only one guitar playing this or if 
is two. It's also some background layers that I can't put my finger on, but if you were 
play this alone it would sound something like this.

Chorus part 2/Guitar 2(?)

e|----------------|----------------|----------------|----------------|
b|----------------|----------------|----------------|----------------|
g|----------------|----------------|----------------|----------------|
d|9---------------|9---------------|9---------------|9---------------|
a|10----0h7h10----|9-----0h7h9-----|9-----0h7h9-----|9-----0h7h9-----|
E|7---------------|7---------------|7---------------|7---------------|

----------------|
----------------|
----------------|
7---7-7-7-7-7---|
7---7-7-7-7-7---|
5---5-5-5-5-5---|

The last chord starts of soft (almost with a single tone) and then grows in strength up 
the end.

After this the first guitar joins in, before the first verse which is almost quiet 
for the drums and a very soft guitar playing the intro).


When the chorus is over once again, a second verse is played with a new soft guitar.

e|---|---|---|---|---|---|---|---|---|---|---|---|---|---|---|---|
b|777|777|777|777|888|555|555|555|555|777|333|333|333|333|555|0~-|
g|---|---|---|---|---|---|---|---|---|---|---|---|---|---|---|---|
d|---|---|---|---|---|---|---|---|---|---|---|---|---|---|---|---|
a|---|---|---|---|---|---|---|---|---|---|---|---|---|---|---|---|
E|---|---|---|---|---|---|---|---|---|---|---|---|---|---|---|---|

After this guitar 1 (chorus) joins in.

e|---|---|---|---|---|---|---|---|---|---|---|---|---|---|---|
b|---|333|333|333|220|555|333|333|333|220|555|333|333|333|220|
g|---|---|---|---|---|---|---|---|---|---|---|---|---|---|---|
d|---|---|---|---|---|---|---|---|---|---|---|---|---|---|---|
a|---|---|---|---|---|---|---|---|---|---|---|---|---|---|---|
E|---|---|---|---|---|---|---|---|---|---|---|---|---|---|---|

At last there is a long outro and another chorus at the end.
Добавлено: 03.10.2013
Другие материалы по этой песне:
  • Аккорды и текст

Страница создана 03.10.2013
http://primanota.ru/misc-unsigned-bands/faunts-out-on-a-limb-chords.htm
Привет, Гость.
Предлагаем пройти революционный курс по гитаре.
Подарок от PrimaNota.Ru, забирай!