PrimaNota.ru - самый крупный в мире бесплатный архив песенных текстов, аккордов, табулатур и нот


Misc Unsigned Bands - Fallen Fate - Asphyxihate - таба

Регистрация Запомнить меня
Войти через:  Facebook Google Twitter Vk Yandex Mail.ru

Misc Unsigned Bands - Fallen Fate - Asphyxihate - таба

Печатать
Просмотров: 41
FALLEN FATE
ASPHXIHATE
REVENGANCE EP

DROP D TUNING

Tabbed By Lee


MAIN RIFF
|--------------------------------------------------------------------------------------------------|
|-7--------7-------7-----8--------8--------8-----5--------5--------5------5--------5--------5-7----|
|--65-------65------656---65-------65-------656---74-------74-------745----73-------74---------4-5-|
|----0-000----0-000---------0-000----0-000----------0-000----0-000-----------0-000----0-000--------|

Lead into Verse 1
|---------------------------------------------------------------|
|-7----------7----------7------7----------7---------------------|
|---65---------65---------645----65---------65------------------|
|------0-000------0-000-------------0-000------0-000---5-4--0---|


VERSE 1

G1 - Verse 1 X2
|--------------------------------------------------------------------------------------------------|
|--------------------------------------------------------------------------------------------------|
|-1-0----------------------1-1-0----------------------4-0-1-0----------------------1-1-0-----------|
|-1-0-00-00000-0-00000-000-1-1-0-00-00000-0-00000-000-4-0-1-0-00-00000-0-00000-000-1-1-0-00-00000--|

|----------------|
|----------------|
|--4------1-3-0--|
|--4--00--1-3-0--|


G2 - Verse 1
|--------------------------------------------------------------------------------------------------|
|--------------------------------------------------------------------------------------------------|
|-1-0----------------------1-1-0----------------------4-0-1-0----------------------1-1-0-----------|
|-1-0-00-00000-0-00000-000-1-1-0-00-00000-0-00000-000-4-0-1-0-00-00000-0-00000-000-1-1-0-00-00000--|

|----------------|
|----------------|
|--4------1-3-0--|
|--4--00--1-3-0--|

Verse Harmony
|-8-7----------------------8-8-7---------------------11---8-7----------------------8-8-7----------|
|-x-x----------------------x-x-x----------------------x---x-x----------------------x-x-x----------|
|-6-5----------------------6-6-5----------------------9-0-6-5----------------------6-6-5----------|
|-----00-00000-0-00000-000-------00-00000-0-00000-000---0-----00-00000-0-00000-000-------00-00000-|

|-11------8-10-7--|
|-x-------x-x--x--|
|-9-------6-8--5--|
|----0-0----------|


PRE-CHORUS

G1 - Pre-Chorus
|--------------------------------------------------------------|
|--------------------------------------------------------------|
|--0----0----0----3----3----3----1----1----1----4----4----4----|
|--0-00-0-00-0-0--3-33-3-33-3-3--1-11-1-11-1-1--4-44-4-44-4-4--|

1st Ending
|---------------------------------------------------------------------------|
|---------------------------------------------------------------------------|
|-5----5----5-----4----4----4-----10-----10-----10-----12------12------12---|
|--88---88---8-----77---77---7------1111---1111---11-----1111----1111----11-|

2nd Ending
|-------------------------------2h3p2---2------------------------------|
|-------------------------------------5---5-3-2-3---3h5p3--2-3-2---2---|
|-5----5----5-----4----4---5h7-----------------------------------5---4-|
|--88---88---8-----77---7----------------------------------------------|


G2 - Pre-Chorus
|--------------------------------------------------------------|
|--5----5----5----8----8----8----4----4----4----7----7----7----|
|--x----x----x----x----x----x----x----x----x----x----x----x----|
|--5-55-5-55-5-5--8-88-8-88-8-8--4-44-4-44-4-4--7-77-7-77-7-7--|

1st Ending
|-------------------------------------------------------------------|
|-------------------------------------------------------------------|
|-5----5----5-----4----4----4-----7----7----7-----8------8------8---|
|--88---88---8-----77---77---7-----77---77---7-----1111---1111---11-|

2nd Ending
|-------------------------------2h3p2---2------------------------------|
|-------------------------------------5---5-3-2-3---3h5p3--2-3-2---2---|
|-5----5----5-----4----4---5h7-----------------------------------5---4-|
|--88---88---8-----77---7----------------------------------------------|


MAIN RIFF


VERSE 2

G1 - Verse 2 (Same Chugging on the Open D as Verse 1)
|------------------------------------|----------END--FILL----------|
|------------------------------------|-------5-6-------------------|
|-1-4-1------------------------------|----3---------3-4------------|
|-------3br-0--00-00000-0-00000-00---|------------3------3-1br-0---|

|------------------------------------|----------END--FILL----------|
|------------------------------------|-------5-6-------------------|
|-1-4-1------------------------------|----3---------3-4------------|
|-------1br-0--00-00000-0-00000-00---|------------3------1---------|


G2 - Verse 2 (Same Chugging on the Open D as Verse 1)
|------------------------------------|----------END--FILL----------|
|------------------------------------|-------5-6-------------------|
|-1-4-1------------------------------|----3---------3-4------------|
|-------3br-0--00-00000-0-00000-00---|------------3------3-1br-0---|

Verse Harmony
|------------------------------------|----------END--FILL----------|
|------------------------------------|-------5-6-------------------|
|-5-8-5------------------------------|----3---------3-4------------|
|-------1br-0--00-00000-0-00000-00---|------------3------1---------|


PRE-CHORUS

G1 - Pre-Chorus
|--------------------------------------------------------------|
|--------------------------------------------------------------|
|--0----0----0----3----3----3----1----1----1----4----4----4----|
|--0-00-0-00-0-0--3-33-3-33-3-3--1-11-1-11-1-1--4-44-4-44-4-4--|

1st Ending
|---------------------------------------------------------------------------|
|---------------------------------------------------------------------------|
|-5----5----5-----4----4----4-----10-----10-----10-----12------12------12---|
|--88---88---8-----77---77---7------1111---1111---11-----1111----1111----11-|

2nd Ending
|-------------------------------2h3p2---2------------------------------|
|-------------------------------------5---5-3-2-3---3h5p3--2-3-2---2---|
|-5----5----5-----4----4---5h7-----------------------------------5---4-|
|--88---88---8-----77---7----------------------------------------------|


G2 - Pre-Chorus
|--------------------------------------------------------------|
|--5----5----5----8----8----8----4----4----4----7----7----7----|
|--x----x----x----x----x----x----x----x----x----x----x----x----|
|--5-55-5-55-5-5--8-88-8-88-8-8--4-44-4-44-4-4--7-77-7-77-7-7--|

1st Ending
|-------------------------------------------------------------------|
|-------------------------------------------------------------------|
|-5----5----5-----4----4----4-----7----7----7-----8------8------8---|
|--88---88---8-----77---77---7-----77---77---7-----1111---1111---11-|

2nd Ending
|-------------------------------2h3p2---2----------------------------------|
|-------------------------------------5---5-3-2-3---8h10p8-/-7-8-7-----7---|
|-5----5----5-----4----4---5h7--------------------------------------10---8-|
|--88---88---8-----77---7--------------------------------------------------|


BRIDGE

G1 - Solo

G2 - Bridge
|------------|
|-0~~~-------|
|-0~~~-------|
|-0~~~-------|

|--------------------------------------------------------------|
|--650-000000-000-000-333-555----650-000000-000-000-333-111----|

|---------------------------------------------------0----------|
|--650-000000-000-000-333-555----650-000000-000-000-0----------|


G1 & G2 - Bridge X2
|---------------------------------------------------------------|
|--650-0000-650-0000-333-555----650-0000-650-000-000-333-111----|

|---------------------------------------------------------------|
|--650-0000-650-0000-333-555----650-0000-650--6-5-0--5-3-0--1-3-|

Then This
|---------------------------------------------------------------|
|---------------------------------------------------------------|
|--0----0----0----3----3----3----1----1----1----4----4----4-----|
|--0-00-0-00-0-0--3-33-3-33-3-3--1-11-1-11-1-1--4-44-4-44-4-4---|

Then This
|---------------------------------------------------------------|
|--650-0000-650-0000-333-555----650-0000-650--6-5-0--5-3-0--1-3-|

|------------------------------------------------------------------------------|
|----------------------------------------------------------------------------6-|
|--0----0----0----3----3----3----1----1----1----4----4----4----5---5---5-----4-|
|--0-00-0-00-0-0--3-33-3-33-3-3--1-11-1-11-1-1--4-44-4-44-4-4---88--88---8-----|


G1 - Solo Backing
|--------------------------------------------------------------|
|--650-000000-000-000-333-555----650-000000-000-000-333-111----|

|--------------------------------------------------------------|
|--------------------------------------------------------------|
|--0----0----0----3----3----3----1----1----1----4----4----4----|
|--0-00-0-00-0-0--3-33-3-33-3-3--1-11-1-11-1-1--4-44-4-44-4-4--|

|--------------------------------------------------------------|
|--650-000000-000-000-333-555----650-000000-000-000-333-111----|

|------------------------------------------------------------------------------|
|----------------------------------------------------------------------------6-|
|--0----0----0----3----3----3----1----1----1----4----4----4----5---5---5-----4-|
|--0-00-0-00-0-0--3-33-3-33-3-3--1-11-1-11-1-1--4-44-4-44-4-4---88--88---8-----|


G2 - Solo


MAIN RIFF X2


OUTRO

G1 - Outro (Repeat to Fade)
|--------------------------------|
|-7---------7---------7----------|
|---65--------65--------645------|
|------000-------000-------------|

G2 - Outro (Repeat to Fade)
|-14------------14-----------14-----------|
|----13-12-000-----13-12-000----13-11-12--|
|-----------------------------------------|
|-----------------------------------------|

G3 - Outro (Repeat to Fade)
|---------------|
|--3--2--0------|
|--3--2--0------|
|--3--2--0------|


www.myspace.com/fallenfate1

Добавлено: 13.12.2013
Другие материалы по этой песне:
  • Аккорды и текст

Страница создана 13.12.2013
http://primanota.ru/misc-unsigned-bands/fallen-fate-asphyxihate-chords.htm
Привет, Гость.
Предлагаем пройти революционный курс по гитаре.
Подарок от PrimaNota.Ru, забирай!