PrimaNota.ru - самый крупный в мире бесплатный архив песенных текстов, аккордов, табулатур и нот


Misc Unsigned Bands - Fahrenheight - My Memory - таба

Регистрация Запомнить меня
Войти через:  Facebook Google Twitter Vk Yandex Mail.ru

Misc Unsigned Bands - Fahrenheight - My Memory - таба

Печатать
Просмотров: 35
My Memory

Song by an unsigned band from liverpool called fahrenheight :]


Intro

Guitar 1

|--------3----------------------4---------------------------|
|---4-----4--4-(x2)-----4-----4---4---(x2)------------------|
|-3--3-----3-----------3---3-----3--------------------------|
|-----------------------------------------------------------|
|-----------------------------------------------------------|
|-----------------------------------------------------------|

then


|--------3----------------------1-----------------------------|
|---4-----4--4--(x2)----4-----4--4-(x2)-----------------------|
|-3--3-----3-----------3---3-----3----------------------------|
|-------------------------------------------------------------|
|-------------------------------------------------------------|
|-------------------------------------------------------------|


then again

|--------3----------------------4---------------------------|
|---4-----4--4-(x2)-----4-----4---4---(x2)------------------|
|-3--3-----3-----------3---3-----3--------------------------|
|-----------------------------------------------------------|
|-----------------------------------------------------------|
|-----------------------------------------------------------|

Then :]

|--------3-----------------------6-------------------------|
|---4-----4---4--(x2)----4-----4--4---(x2)-----------------|
|-3--3------3-----------3---3----3-------------------------|
|----------------------------------------------------------|
|----------------------------------------------------------|
|----------------------------------------------------------|

Near enough whole song for guitar 1 :]

Guitar 2

D#

A#

C

A#


Chorus with distortion


Bass

Intro

G|-----------------------------------------------------------|
D|-----------------------------------------------------------|
A|--6--------------------------------------------------------|
E|-------------------6--------------8-------------6----------|
B|-----------------------------------------------------------|              How many times

Verse

G|----------------------------------------------------------|
D|----------------------------------------------------------|
A|-6(x16)---------------------------------------------------|
E|----------6(x16)-8(x16)-6(x16)----------------------------|
B|----------------------------------------------------------|               Twice i think

Chorus
G|-----8-6----------------------------------------------------------------|
D|---------8-6-------8-6----------10-8-------------------------8-6--------|
A|-6..--------------------8-6-------------10-8------------6-8------6-8-6--|
E|---------------6..------------8..-----------------6..6-8----------------|
B|------------------------------------------------------------------------|
    Times two :]
Добавлено: 26.12.2013
Другие материалы по этой песне:
  • Аккорды и текст

Страница создана 26.12.2013
http://primanota.ru/misc-unsigned-bands/fahrenheight-my-memory-chords.htm
Привет, Гость.
Предлагаем пройти революционный курс по гитаре.
Подарок от PrimaNota.Ru, забирай!