PrimaNota.ru - самый крупный в мире бесплатный архив песенных текстов, аккордов, табулатур и нот


Misc Unsigned Bands - F-zero - Big Blue - таба, видео

Регистрация Запомнить меня
Войти через:  Facebook Google Twitter Vk Yandex Mail.ru

Misc Unsigned Bands - F-zero - Big Blue - таба, видео

Печатать
Просмотров: 51
Уроки эстрадного вокала в Санкт-Петербурге
All credit goes to that guy at http://www.gametabs.net/super-nintendo/f-zero/big-blue

This is the best tab ive found for this sound it owns...

no im not taking any credit for this AT ALL...

i just wanted to share my finds with th UG comunity. enjoy....


F-Zero: Big Blue (Super Nes)

Written by: Koji Kondo...?

Tabbed by: "Fast" Eddie Schofield

Tuning: Normal

Intro
e--7----7-5----5----5-7-|
B-----------------------|
G-----------------------| Repeat 2x
D-----------------------|
A-----------------------|
E-----------------------|

e------------------|
B------------------|
G------------------|
D------------------|
A-1-----4-3---1----|
E---1-4-----3------|

e--7----7-5----5----5-7-|
B-----------------------|
G-----------------------|
D-----------------------|
A-----------------------|
E-----------------------|

e------------------|
B----------1-0-----|
G---1-3------------|
D-4------4---------|
A------------------|
E------------------|

e--7----7-5--10--9-------------------|
B-------------------10--10-10---10-7-|
G------------------------------------|
D------------------------------------|
A------------------------------------|
E------------------------------------|

Main Part
e--1---------------------------------|
B------4---2-1-2----1-----1----2-1---|
G---------------------3-1----------1-|
D------------------------------------|
A------------------------------------|
E------------------------------------|

e--1----1-4-3---1--------------------|
B-------------4-----2-4-6-4----------|
G-----3------------------------------|
D------------------------------------|
A------------------------------------|
E------------------------------------|

e--6--6--6-8-9-8-------6--6--6-8-13-11----|
B---6--6-----------9----6--6--------------|
G----3--3----------------3--3-------------|
D-----------------------------------------|
A-----------------------------------------|
E-----------------------------------------|

e--8-9-8--------6--8-9-13-11--9-8--9-8---6---|
B--------9-7--9------------------------9-----|
G--------------------------------------------|
D--------------------------------------------|
A--------------------------------------------|
E--------------------------------------------|

e--1--------1-----6--------------------|
B----2---2-----4---6---4--1-2-4--------|
G------3-------------------------1-----|
D--------------------------------------|
A--------------------------------------|
E--------------------------------------|

e--4-2--1/2/1-------------1-6-9---11--13--11---|
B-------------4-2-1---------------------11-----|
G-------------------1---3----------------------|
D----------------------------------------------|
A----------------------------------------------|
E----------------------------------------------|

e--9--8---4-6-8-9-8-11---8-4-2/1----|
B-------6---------------------------|
G-----------------------------------|
D-----------------------------------|
A-----------------------------------|
E-----------------------------------|

e--1/2-1/2-1/2-6------6---9-6-------|
B----------------6--6---6-----6---6-|
G-------------------------------6---|
D-----------------------------------|
A-----------------------------------|
E-----------------------------------|

e--------------4------4---8---------|
B--6/7-6/7-6/7---4--6---6---9-6-----|
G-----------------------------------|
D-----------------------------------|
A-----------------------------------|
E-----------------------------------|

e----6-9---6-9---6-9---6-9-11--8----|
B--7-----7-----7-----7--------------|
G-----------------------------------|
D-----------------------------------|
A-----------------------------------|
E-----------------------------------|

e------8-----8-----8-----8-9--8-----|
B--6-9---6-9---6-9---6-9------------|
G-----------------------------------|
D-----------------------------------|
A-----------------------------------|
E-----------------------------------|

Warning: may cause absolute insanity or exploding heads.

e----------------------------------------1--4-1-|
B-----------------------------1-1/2/1/2/4-------|
G--------------------3-1/3/1/3-3----------------|
D-----0-0/1/0/1/3/1/3-1-------------------------|
A--1/3-3----------------------------------------|
E-----------------------------------------------|

e--------1-1-4--8---9-8---6--1-----4--2-1--|
B--1---1----------9--------------2---------|
G----1-------------------------3-----------|
D------------------------------------------|
A------------------------------------------|
E------------------------------------------|

e------1-4---4-4-4--------------|
B----2--------------------------|
G--3-------------------1----1---|
D--------------------3----3-----|
A-------------------------------|
E-------------------------------|
Добавлено: 20.08.2013
Другие материалы по этой песне:
  • Аккорды и текст

Страница создана 20.08.2013
http://primanota.ru/misc-unsigned-bands/f-zero-big-blue-chords.htm
Привет, Гость.
Предлагаем пройти революционный курс по гитаре.
Подарок от PrimaNota.Ru, забирай!