PrimaNota.ru - самый крупный в мире бесплатный архив песенных текстов, аккордов, табулатур и нот


Misc Unsigned Bands - Exordium - You Smacked Who - таба, бас-таба

Регистрация Запомнить меня
Войти через:  Facebook Google Twitter Vk Yandex Mail.ru

Misc Unsigned Bands - Exordium - You Smacked Who - таба, бас-таба

Печатать
Просмотров: 85
Уроки эстрадного вокала в Санкт-Петербурге
Title: You Smacked Who!?
SubTitle: Drums are not right they were not written by the drummer he had leg
surgery and couldn't do anything for this song
Artist: Exordium
Album: Instrumentals
Words: John
Music: Exordium
Copyright: Exordium
Tempo = 150
Lead Guitar

Legend
L - tied note
x - dead note
h - hammer on/pull off
b - bend
s - slide
~ - vibrato
g - ghost note
> - accentuated note
t - trill
M - palm mute
. - staccato
P - popping (bass)
S - slapping (bass)
+ - tapping
W - wide vibrato
< - fade in
w - whammy bar
= - tremolo picking
v - brush up
^ - brush down
V - pick stroke up
n - pick stroke down

                                             <               <
D |----|----|----|----|----|----|----|----|-------|-------|-------|-------|
A |----|----|----|----|----|----|----|----|-------|-------|-------|-------|
F |----|----|----|----|----|----|----|----|-------|-------|-------|-------|
C |----|----|----|----|----|----|----|----|--0L---|--0----|--4L---|--4----|
G |----|----|----|----|----|----|----|----|--0L---|--0----|--4L---|--4----|
C |----|----|----|----|----|----|----|----|--0L---|--0----|--4L---|--4----|

  <               <               <               <               <
-------|-------|-------|-------|-------|-------|-------|-------|-------|-------|
-------|-------|-------|-------|-------|-------|-------|-------|-------|-------|
-------|-------|-------|-------|-------|-------|-------|-------|-------|-------|
--7L---|--7----|--0L---|--0----|--0L---|--0----|--4L---|--4----|--7L---|--7----|
--7L---|--7----|--0L---|--0----|--0L---|--0----|--4L---|--4----|--7L---|--7----|
--7L---|--7----|--0L---|--0----|--0L---|--0----|--4L---|--4----|--7L---|--7----|

  <
-------|-------|----|----|----------------------------|
-------|-------|----|----|-----------10---------------|
-------|-------|----|----|--------------------11L11L--|
--0L---|--0----|----|----|-----11-------11------------|
--0L---|--0----|----|----|--9-----9--------9----------|
--0L---|--0----|----|----|----------------------------|


----------------------------|----------------------------|
----------------------------|-----------10---------------|
--11-------9----------------|--------------------11L11L--|
-----11-------11------------|-----11-------11------------|
--------9--------9--5L-5----|--9-----9--------9----------|
----------------------------|----------------------------|


----------------------------|----------------------------|
----------------------------|----------------------------|
--11-------9----------------|----------------------------|
-----11-------11------------|-----11----11----11----9----|
--------9--------9--5L-5----|--9-----9-----9-----9-------|
----------------------------|----------------------------|


----------------------------|----------------------------|
----------------------------|----------------------------|
----------------------------|----------------------------|
-----9-----7-----7----------|-----11----11----11----9----|
--9-----9-----9-----9L-9----|--9-----9-----9-----9-------|
----------------------------|----------------------------|


----------------------------|----------------------------|
----------------------------|----------------------------|
----------------------------|--14-14-14-14-13-13-13-13---|
-----9-----7-----7----------|--x--x--x--x--x--x--x--x----|
--9-----9-----9-----9L-9----|--12-12-12-12-11-11-11-11---|
----------------------------|----------------------------|


----------------------------|----------------------------|
----------------------------|----------------------------|
--14-14-14-14-11-11-11-11---|--14-14-14-14-13-13-13-13---|
--x--x--x--x--x--x--x--x----|--x--x--x--x--x--x--x--x----|
--12-12-12-12-9--9--9--9----|--12-12-12-12-11-11-11-11---|
----------------------------|----------------------------|


----------------------------|----------------------------|
----------------------------|----------------------------|
--14-14-14-14-11-11-11-11---|--14-14-14-14-13-13-13-13---|
--x--x--x--x--x--x--x--x----|--x--x--x--x--x--x--x--x----|
--12-12-12-12-9--9--9--9----|--12-12-12-12-11-11-11-11---|
----------------------------|----------------------------|


----------------------------|-------|-------|-------|-------|-------|-------|
----------------------------|-------|-------|-------|-------|-------|-------|
--14-14-14-14-11-11-11-11---|--14L--|--14L--|--14L--|--14---|--13L--|--13L--|
--x--x--x--x--x--x--x--x----|--x----|--x----|--x----|--x----|--x----|--x----|
--12-12-12-12-9--9--9--9----|--12L--|--12L--|--12L--|--12---|--11L--|--11L--|
----------------------------|-------|-------|-------|-------|-------|-------|


-------|-------|-------|-------|-------|-------|-------|-------|-------|-------|
-------|-------|-------|-------|-------|-------|-------|-------|-------|-------|
--13L--|--13---|--14L--|--14L--|--14L--|--14---|--11L--|--11L--|--11L--|--11---|
--x----|--x----|--x----|--x----|--x----|--x----|--x----|--x----|--x----|--x----|
--11L--|--11---|--12L--|--12L--|--12L--|--12---|--9L---|--9L---|--9L---|--9----|
-------|-------|-------|-------|-------|-------|-------|-------|-------|-------|


-------|--12---|----------------------------|----------------------------|
--9----|--9----|-----------10---------------|----------------------------|
--9----|--9----|--------------------11L11L--|--11-------9----------------|
-------|-------|-----11-------11------------|-----11-------11------------|
-------|-------|--9-----9--------9----------|--------9--------9--5L-5----|
-------|-------|----------------------------|----------------------------|


----------------------------|----------------------------|
-----------10---------------|----------------------------|
--------------------11L11L--|--11-------9----------------|
-----11-------11------------|-----11-------11------------|
--9-----9--------9----------|--------9--------9--5L-5----|
----------------------------|----------------------------|


----------------------------|----------------------------|
----------------------------|----------------------------|
----------------------------|----------------------------|
-----11----11----11----9----|-----9-----7-----7----------|
--9-----9-----9-----9-------|--9-----9-----9-----9L-9----|
----------------------------|----------------------------|


----------------------------|----------------------------|
----------------------------|----------------------------|
----------------------------|----------------------------|
-----11----11----11----9----|-----9-----7-----7----------|
--9-----9-----9-----9-------|--9-----9-----9-----9L-9----|
----------------------------|----------------------------|


----------------------------|----------------------------|
----------------------------|----------------------------|
--14-14-14-14-13-13-13-13---|--14-14-14-14-11-11-11-11---|
--x--x--x--x--x--x--x--x----|--x--x--x--x--x--x--x--x----|
--12-12-12-12-11-11-11-11---|--12-12-12-12-9--9--9--9----|
----------------------------|----------------------------|


----------------------------|----------------------------|
----------------------------|----------------------------|
--14-14-14-14-13-13-13-13---|--14-14-14-14-11-11-11-11---|
--x--x--x--x--x--x--x--x----|--x--x--x--x--x--x--x--x----|
--12-12-12-12-11-11-11-11---|--12-12-12-12-9--9--9--9----|
----------------------------|----------------------------|


----------------------------|----------------------------|-------|-------|
----------------------------|----------------------------|-------|-------|
--14-14-14-14-13-13-13-13---|--14-14-14-14-11-11-11-11---|--14L--|--14L--|
--x--x--x--x--x--x--x--x----|--x--x--x--x--x--x--x--x----|--x----|--x----|
--12-12-12-12-11-11-11-11---|--12-12-12-12-9--9--9--9----|--12L--|--12L--|
----------------------------|----------------------------|-------|-------|


-------|-------|-------|-------|-------|-------|-------|-------|-------|-------|
-------|-------|-------|-------|-------|-------|-------|-------|-------|-------|
--14L--|--14---|--13L--|--13L--|--13L--|--13---|--14L--|--14L--|--14L--|--14---|
--x----|--x----|--x----|--x----|--x----|--x----|--x----|--x----|--x----|--x----|
--12L--|--12---|--11L--|--11L--|--11L--|--11---|--12L--|--12L--|--12L--|--12---|
-------|-------|-------|-------|-------|-------|-------|-------|-------|-------|


-------|-------|-------|-------|-------|--12---|----------------------------|
-------|-------|-------|-------|--9----|--9----|----------------------------|
--11L--|--11L--|--11L--|--11---|--9----|--9----|--6--6--6--6--6--6--6--6s---|
--x----|--x----|--x----|--x----|-------|-------|--4--4--4--4--4--4--4--4s---|
--9L---|--9L---|--9L---|--9----|-------|-------|--5--5--5--5--5--5--5--5s---|
-------|-------|-------|-------|-------|-------|----------------------------|


----------------------------|----------------------------|
----------------------------|----------------------------|
----------------------------|----------------------------|
----------------------------|----------------------------|
--0M-0M-0M-------0M-0M-0M---|--0M-0M-0M-------0M-0M-0M---|
--0M-0M-0M-------0M-0M-0M---|--0M-0M-0M-------0M-0M-0M---|


----------------------------|----------------------------|
----------------------------|----------------------------|
----------------------------|----------------------------|
----------------------------|----------------------------|
--0M-0M-0M------------------|--0M-0M-0M-------0M-0M-0M---|
--0M-0M-0M-------0M-0M-0M---|--0M-0M-0M-------0M-0M-0M---|


----------------------------|----------------------------|
----------------------------|----------------------------|
----------------------------|----------------------------|
----------------------------|----------------------------|
--0M-0M-0M-------0M-0M-0M---|--0M-0M-0M------------------|
--0M-0M-0M-------0M-0M-0M---|--0M-0M-0M-------0M-0M-0M---|


----------------------------|----------------------------|
----------------------------|----------------------------|
--6--6--6--6--6--6--6--6s---|----------------------------|
--4--4--4--4--4--4--4--4s---|----------------------------|
--5--5--5--5--5--5--5--5s---|--0M-0M-0M-------0M-0M-0M---|
----------------------------|--0M-0M-0M-------0M-0M-0M---|


----------------------------|----------------------------|
----------------------------|----------------------------|
----------------------------|----------------------------|
----------------------------|----------------------------|
--0M-0M-0M-------0M-0M-0M---|--0M-0M-0M------------------|
--0M-0M-0M-------0M-0M-0M---|--0M-0M-0M-------0M-0M-0M---|


----------------------------|----------------------------|
----------------------------|----------------------------|
----------------------------|----------------------------|
----------------------------|----------------------------|
--0M-0M-0M-------0M-0M-0M---|--0M-0M-0M-------0M-0M-0M---|
--0M-0M-0M-------0M-0M-0M---|--0M-0M-0M-------0M-0M-0M---|


----------------------------|--17-17-12-12-12-12-12-12---|
----------------------------|--14-14-10-10-10-9--9--9----|
----------------------------|--14-14-9--9--9--9--9--9----|
----------------------------|----------------------------|
--0M-0M-0M------------------|----------------------------|
--0M-0M-0M-------0M-0M-0M---|----------------------------|


--12-12-12-12-12-12-12-12---|--17-17-12-12-12-12-12-12---|
--9--10-10-10-10-10-10-10---|--14-14-10-10-10-9--9--9----|
--9--9--9--9--9--9--9--9----|--14-14-9--9--9--9--9--9----|
----------------------------|----------------------------|
----------------------------|----------------------------|
----------------------------|----------------------------|


--12-12-12-12-12-12-12-12---|--17-17-12-12-12-12-12-12---|
--9--10-10-10-10-10-10-10---|--14-14-10-10-10-9--9--9----|
--9--9--9--9--9--9--9--9----|--14-14-9--9--9--9--9--9----|
----------------------------|----------------------------|
----------------------------|----------------------------|
----------------------------|----------------------------|


--12-12-12-12-12-12-12-12---|--17-17-17-17-17-17-17-17---|
--9--10-10-10-10-10-10-10---|--14-14-14-14-14-14-14-14---|
--9--9--9--9--9--9--9--9----|--14-14-14-14-14-14-14-14---|
----------------------------|----------------------------|
----------------------------|----------------------------|
----------------------------|----------------------------|


--17-17L17L17-17-17-17-17---|--17-17-12-12-12-12-12-12---|
--14-14L14L14-14-14-14-14---|--14-14-10-10-10-9--9--9----|
--14-14L14L14-14-14-14-14---|--14-14-9--9--9--9--9--9----|
----------------------------|----------------------------|
----------------------------|----------------------------|
----------------------------|----------------------------|


--12-12-12-12-12-12-12-12---|--17-17-12-12-12-12-12-12---|
--9--10-10-10-10-10-10-10---|--14-14-10-10-10-9--9--9----|
--9--9--9--9--9--9--9--9----|--14-14-9--9--9--9--9--9----|
----------------------------|----------------------------|
----------------------------|----------------------------|
----------------------------|----------------------------|


--12-12-12-12-12-12-12-12---|--17-17-12-12-12-12-12-12---|
--9--10-10-10-10-10-10-10---|--14-14-10-10-10-9--9--9----|
--9--9--9--9--9--9--9--9----|--14-14-9--9--9--9--9--9----|
----------------------------|----------------------------|
----------------------------|----------------------------|
----------------------------|----------------------------|


--12-12-12-12-12-12-12-12---|--17-17-17-17-17-17-17-17---|
--9--10-10-10-10-10-10-10---|--14-14-14-14-14-14-14-14---|
--9--9--9--9--9--9--9--9----|--14-14-14-14-14-14-14-14---|
----------------------------|----------------------------|
----------------------------|----------------------------|
----------------------------|----------------------------|


--17-17L17L17-17-17-17-17---|--12---|----------------|-------|-------|
--14-14L14L14-14-14-14-14---|--9----|----------------|-------|-------|
--14-14L14L14-14-14-14-14---|--9----|--11-11-11L11L--|--11L--|--11---|
----------------------------|--0----|--0--0--0L-0L---|--0L---|--0----|
----------------------------|-------|--9--9--9L-9L---|--9L---|--9----|
----------------------------|-------|----------------|-------|-------|


----------------------------|----------------------------|
----------------------------|----------------------------|
--14-14-14-14-13-13-13-13---|--14-14-14-14-11-11-11-11---|
--x--x--x--x--x--x--x--x----|--x--x--x--x--x--x--x--x----|
--12-12-12-12-11-11-11-11---|--12-12-12-12-9--9--9--9----|
----------------------------|----------------------------|


----------------------------|----------------------------|
----------------------------|----------------------------|
--14-14-14-14-13-13-13-13---|--14-14-14-14-11-11-11-11---|
--x--x--x--x--x--x--x--x----|--x--x--x--x--x--x--x--x----|
--12-12-12-12-11-11-11-11---|--12-12-12-12-9--9--9--9----|
----------------------------|----------------------------|


----------------------------|----------------------------|-------|-------|
----------------------------|----------------------------|-------|-------|
--14-14-14-14-13-13-13-13---|--14-14-14-14-11-11-11-11---|--14L--|--14L--|
--x--x--x--x--x--x--x--x----|--x--x--x--x--x--x--x--x----|--x----|--x----|
--12-12-12-12-11-11-11-11---|--12-12-12-12-9--9--9--9----|--12L--|--12L--|
----------------------------|----------------------------|-------|-------|


-------|-------|-------|-------|-------|-------|-------|-------|-------|-------|
-------|-------|-------|-------|-------|-------|-------|-------|-------|-------|
--14L--|--14---|--13L--|--13L--|--13L--|--13---|--14L--|--14L--|--14L--|--14---|
--x----|--x----|--x----|--x----|--x----|--x----|--x----|--x----|--x----|--x----|
--12L--|--12---|--11L--|--11L--|--11L--|--11---|--12L--|--12L--|--12L--|--12---|
-------|-------|-------|-------|-------|-------|-------|-------|-------|-------|


-------|-------|-------|-------|-------|-------|----||
-------|-------|-------|-------|--9----|-------|----||
--11L--|--11L--|--11L--|--11---|--9----|-------|----||
--x----|--x----|--x----|--x----|-------|--0----|----||
--9L---|--9L---|--9L---|--9----|-------|--0----|----||
-------|-------|-------|-------|-------|--0----|----||
__________________________________________________________________
---------------------------------------------------------
__________________________________________________________________

Title: You Smacked Who!?
SubTitle: Drums are not right they were not written by the drummer he had leg surgery 
and couldn't do anything for this song
Artist: Exordium
Album: Instrumentals
Words: John
Music: Exordium
Copyright: Exordium
Tempo = 150
Rhythm Guitar

Legend
L - tied note
x - dead note
h - hammer on/pull off
b - bend
s - slide
~ - vibrato
g - ghost note
> - accentuated note
t - trill
M - palm mute
. - staccato
P - popping (bass)
S - slapping (bass)
+ - tapping
W - wide vibrato
< - fade in
w - whammy bar
= - tremolo picking
v - brush up
^ - brush down
V - pick stroke up
n - pick stroke down


D |----|----|----|----|----|----|----|----|----|----|----|----|----|----|----|
A |----|----|----|----|----|----|----|----|----|----|----|----|----|----|----|
F |----|----|----|----|----|----|----|----|----|----|----|----|----|----|----|
C |----|----|----|----|----|----|----|----|----|----|----|----|----|----|----|
G |----|----|----|----|----|----|----|----|----|----|----|----|----|----|----|
C |----|----|----|----|----|----|----|----|----|----|----|----|----|----|----|


----|----|----|----|----|----|----|----|----|----|----|
----|----|----|----|----|----|----|----|----|----|----|
----|----|----|----|----|----|----|----|----|----|----|
----|----|----|----|----|----|----|----|----|----|----|
----|----|----|----|----|----|----|----|----|----|----|
----|----|----|----|----|----|----|----|----|----|----|


----------------------------|----------------------------|
-----------5----------------|----------------------------|
--------------------6L-6L---|--6--------4----------------|
-----7--------7-------------|-----7--------7-------------|
--4-----4--------4----------|--------4--------4L-4L-4s---|
----------------------------|----------------------------|


----------------------------|----------------------------|
-----------5----------------|----------------------------|
--------------------6L-6L---|--6--------4----------------|
-----7--------7-------------|-----7--------7-------------|
--4-----4--------4----------|--------4--------4L-4L-4s---|
----------------------------|----------------------------|


----------------------------|----------------------------|
----------------------------|----------------------------|
-----11----11----11----9----|-----9-----7-----7----------|
--9-----9-----9-----9-------|--9-----9-----9-----9L-9----|
----------------------------|----------------------------|
----------------------------|----------------------------|


----------------------------|----------------------------|
----------------------------|----------------------------|
-----11----11----11-11h12L--|--12-11-9L-9L-9L-9L-9L-9s---|
--9-----9-----9-------------|----------------------------|
----------------------------|----------------------------|
----------------------------|----------------------------|


----------------------------|----------------------------|
----------------------------|----------------------------|
--14-14-14-14-13-13-13-13---|--18-18-18-18-16-16-16-16---|
--x--x--x--x--x--x--x--x----|--x--x--x--x--x--x--x--x----|
--12-12-12-12-11-11-11-11---|--16-16-16-16-14-14-14-14---|
----------------------------|----------------------------|


----------------------------|----------------------------|
----------------------------|----------------------------|
--14-14-14-14-13-13-13-13---|--18-18-18-18-16-16-16-16---|
--x--x--x--x--x--x--x--x----|--x--x--x--x--x--x--x--x----|
--12-12-12-12-11-11-11-11---|--16-16-16-16-14-14-14-14---|
----------------------------|----------------------------|


----------------------------|----------------------------|
----------------------------|----------------------------|
--14-14-14-14-13-13-13-13---|--18-18-18-18-16-16-16-16---|
--x--x--x--x--x--x--x--x----|--x--x--x--x--x--x--x--x----|
--12-12-12-12-11-11-11-11---|--16-16-16-16-14-14-14-14---|
----------------------------|----------------------------|


-----17-------17------------|-----------12---------------|
--------17-------17---------|--------12----12----12L12---|
--18-------18-------18s14L--|--14-14----------14---------|
----------------------------|----------------------------|
----------------------------|----------------------------|
----------------------------|----------------------------|


-----------12---------------|-----12---------------------|
-----10-------10----10L10---|--------10----10------------|
--9-----9--------9----------|--9--------9-----9L-9L-9----|
----------------------------|----------------------------|
----------------------------|----------------------------|
----------------------------|----------------------------|


-----17-------17------------|-----------12---------------|
--------17-------17---------|--------12----12----12L12---|
--18-------18-------18s14L--|--14-14----------14---------|
----------------------------|----------------------------|
----------------------------|----------------------------|
----------------------------|----------------------------|


-----------12---------------|-----12---------------------|
-----10-------10----10L10---|--------10----10------------|
--9-----9--------9----------|--9--------9-----9L-9L-9----|
----------------------------|----------------------------|
----------------------------|----------------------------|
----------------------------|----------------------------|


-----17-------17------------|-----------12---------------|
--------17-------17---------|--------12----12----12L12---|
--18-------18-------18s14L--|--14-14----------14---------|
----------------------------|----------------------------|
----------------------------|----------------------------|
----------------------------|----------------------------|


-----------12---------------|-----12---------------------|
-----10-------10----10L10---|--------10----10------------|
--9-----9--------9----------|--9--------9-----9L-9L-9----|
----------------------------|----------------------------|
----------------------------|----------------------------|
----------------------------|----------------------------|


-----17-------17------------|-----------12---------------|
--------17-------17---------|--------12----12----12L12---|
--18-------18-------18s14L--|--14-14----------14---------|
----------------------------|----------------------------|
----------------------------|----------------------------|
----------------------------|----------------------------|


-----------12---------------|-----12---------------------|-------|--12---|
-----10-------10----10L10---|--------10----10------------|--9----|--9----|
--9-----9--------9----------|--9--------9-----9L-9L-9----|--9----|--9----|
----------------------------|----------------------------|-------|-------|
----------------------------|----------------------------|-------|-------|
----------------------------|----------------------------|-------|-------|


----------------------------|----------------------------|
-----------5----------------|----------------------------|
--------------------6L-6L---|--6--------4----------------|
-----7--------7-------------|-----7--------7-------------|
--4-----4--------4----------|--------4--------4L-4L-4s---|
----------------------------|----------------------------|


----------------------------|----------------------------|
-----------5----------------|----------------------------|
--------------------6L-6L---|--6--------4----------------|
-----7--------7-------------|-----7--------7-------------|
--4-----4--------4----------|--------4--------4L-4L-4s---|
----------------------------|----------------------------|


----------------------------|----------------------------|
----------------------------|----------------------------|
-----11----11----11----9----|-----9-----7-----7----------|
--9-----9-----9-----9-------|--9-----9-----9-----9L-9----|
----------------------------|----------------------------|
----------------------------|----------------------------|


----------------------------|----------------------------|
----------------------------|----------------------------|
-----11----11----11-11h12L--|--12-11-9L-9L-9L-9L-9L-9s---|
--9-----9-----9-------------|----------------------------|
----------------------------|----------------------------|
----------------------------|----------------------------|


----------------------------|----------------------------|
----------------------------|----------------------------|
--14-14-14-14-13-13-13-13---|--18-18-18-18-16-16-16-16---|
--x--x--x--x--x--x--x--x----|--x--x--x--x--x--x--x--x----|
--12-12-12-12-11-11-11-11---|--16-16-16-16-14-14-14-14---|
----------------------------|----------------------------|


----------------------------|----------------------------|
----------------------------|----------------------------|
--14-14-14-14-13-13-13-13---|--18-18-18-18-16-16-16-16---|
--x--x--x--x--x--x--x--x----|--x--x--x--x--x--x--x--x----|
--12-12-12-12-11-11-11-11---|--16-16-16-16-14-14-14-14---|
----------------------------|----------------------------|


----------------------------|----------------------------|
----------------------------|----------------------------|
--14-14-14-14-13-13-13-13---|--18-18-18-18-16-16-16-16---|
--x--x--x--x--x--x--x--x----|--x--x--x--x--x--x--x--x----|
--12-12-12-12-11-11-11-11---|--16-16-16-16-14-14-14-14---|
----------------------------|----------------------------|


-----17-------17------------|-----------12---------------|
--------17-------17---------|--------12----12----12L12---|
--18-------18-------18s14L--|--14-14----------14---------|
----------------------------|----------------------------|
----------------------------|----------------------------|
----------------------------|----------------------------|


-----------12---------------|-----12---------------------|
-----10-------10----10L10---|--------10----10------------|
--9-----9--------9----------|--9--------9-----9L-9L-9----|
----------------------------|----------------------------|
----------------------------|----------------------------|
----------------------------|----------------------------|


-----17-------17------------|-----------12---------------|
--------17-------17---------|--------12----12----12L12---|
--18-------18-------18s14L--|--14-14----------14---------|
----------------------------|----------------------------|
----------------------------|----------------------------|
----------------------------|----------------------------|


-----------12---------------|-----12---------------------|
-----10-------10----10L10---|--------10----10------------|
--9-----9--------9----------|--9--------9-----9L-9L-9----|
----------------------------|----------------------------|
----------------------------|----------------------------|
----------------------------|----------------------------|


-----17-------17------------|-----------12---------------|
--------17-------17---------|--------12----12----12L12---|
--18-------18-------18s14L--|--14-14----------14---------|
----------------------------|----------------------------|
----------------------------|----------------------------|
----------------------------|----------------------------|


-----------12---------------|-----12---------------------|
-----10-------10----10L10---|--------10----10------------|
--9-----9--------9----------|--9--------9-----9L-9L-9----|
----------------------------|----------------------------|
----------------------------|----------------------------|
----------------------------|----------------------------|


-----17-------17------------|-----------12---------------|
--------17-------17---------|--------12----12----12L12---|
--18-------18-------18s14L--|--14-14----------14---------|
----------------------------|----------------------------|
----------------------------|----------------------------|
----------------------------|----------------------------|


-----------12---------------|-----12---------------------|-------|--12---|
-----10-------10----10L10---|--------10----10------------|--9----|--9----|
--9-----9--------9----------|--9--------9-----9L-9L-9----|--9----|--9----|
----------------------------|----------------------------|-------|-------|
----------------------------|----------------------------|-------|-------|
----------------------------|----------------------------|-------|-------|


----------------------------|----------------------------|
----------------------------|----------------------------|
--6--6--6--6--6--6--6--6s---|----------------------------|
--4--4--4--4--4--4--4--4s---|----------------------------|
--5--5--5--5--5--5--5--5s---|----------------------------|
----------------------------|--0--0--0--0--0--0--0--0----|


----------------------------|----------------------------|
----------------------------|----------------------------|
----------------------------|----------------------------|
----------------------------|----------------------------|
----------------------------|----------------------------|
--0--0--0--0--0--0--0--0----|--0--0--0--0--0--0--0--0----|


----------------------------|----------------------------|
----------------------------|----------------------------|
----------------------------|----------------------------|
----------------------------|----------------------------|
----------------------------|----------------------------|
--0--0--0--0--0--0--0--0----|--0--0--0--0--0--0--0--0----|


----------------------------|----------------------------|
----------------------------|----------------------------|
----------------------------|--6--6--6--6--6--6--6--6s---|
----------------------------|--4--4--4--4--4--4--4--4s---|
----------------------------|--5--5--5--5--5--5--5--5s---|
--0--0--0--0--0--0--0--0----|----------------------------|


----------------------------|----------------------------|
----------------------------|----------------------------|
----------------------------|----------------------------|
----------------------------|----------------------------|
----------------------------|----------------------------|
--0--0--0--0--0--0--0--0----|--0--0--0--0--0--0--0--0----|


----------------------------|----------------------------|
----------------------------|----------------------------|
----------------------------|----------------------------|
----------------------------|----------------------------|
----------------------------|----------------------------|
--0--0--0--0--0--0--0--0----|--0--0--0--0--0--0--0--0----|


----------------------------|----------------------------|
----------------------------|----------------------------|
----------------------------|----------------------------|
----------------------------|----------------------------|
----------------------------|----------------------------|
--0--0--0--0--0--0--0--0----|--0--0--0--0--0--0--0--0----|


----------------------------|----------------------------|
----------------------------|----------------------------|
----------------------------|----------------------------|
----------------------------|--7--7--7--7--9--9--9--9----|
--9--9--9--9--7--7--7--7----|----------------------------|
----------------------------|----------------------------|


----------------------------|----------------------------|
----------------------------|----------------------------|
----------------------------|----------------------------|
--11-11-11-11-11-11-11-11---|----------------------------|
----------------------------|--9--9--9--9--7--7--7--7----|
----------------------------|----------------------------|


----------------------------|----------------------------|
----------------------------|----------------------------|
----------------------------|----------------------------|
--7--7--7--7--9--9--9--9----|--11-11-11-11-11-11-11-11---|
----------------------------|----------------------------|
----------------------------|----------------------------|


----------------------------|----------------------------|
--------------15-15-15-15---|----------------------------|
--11-11-11-11---------------|--14-14-14-14---------------|
----------------------------|--------------12-12-12-12---|
----------------------------|----------------------------|
----------------------------|----------------------------|


----------------------------|----------------------------|
--------------10------------|--14-14-14-14-14-14-14-14---|
----------------------------|----------------------------|
--14-14-14-14---------------|----------------------------|
----------------------------|----------------------------|
----------------------------|----------------------------|


--17-17-17-17-17-17-17-17---|----------------------------|
----------------------------|--12-12-12-12-12-12-12-12---|
----------------------------|----------------------------|
----------------------------|----------------------------|
----------------------------|----------------------------|
----------------------------|----------------------------|


----------------------------|----------------------------|
----------------------------|----------------------------|
--13-13-13-13-13-13-13-13---|--13h14-13h14-13h14-13h14---|
----------------------------|----------------------------|
----------------------------|----------------------------|
----------------------------|----------------------------|


----------------------------|--17-17-17-17-17-17-17-17---|
----------------------------|----------------------------|
--13h14-13h14-13h14-13h14---|----------------------------|
----------------------------|----------------------------|
----------------------------|----------------------------|
----------------------------|----------------------------|


----------------------------|----------------------------|
--12-12-12-12-12-12-12-12---|----------------------------|
----------------------------|--13-13-13-13-13-13-13-13---|
----------------------------|----------------------------|
----------------------------|----------------------------|
----------------------------|----------------------------|


----------------------------|----------------------------|
----------------------------|----------------------------|
--13h14-13h14-13h14-13h14---|--13h14-13h14-13h14-13h14---|
----------------------------|----------------------------|
----------------------------|----------------------------|
----------------------------|----------------------------|


----------------------------|----------------------------|
----------------------------|----------------------------|
--14-14-14-14-13-13-13-13---|--18-18-18-18-16-16-16-16---|
--x--x--x--x--x--x--x--x----|--x--x--x--x--x--x--x--x----|
--12-12-12-12-11-11-11-11---|--16-16-16-16-14-14-14-14---|
----------------------------|----------------------------|


----------------------------|----------------------------|
----------------------------|----------------------------|
--14-14-14-14-13-13-13-13---|--18-18-18-18-16-16-16-16---|
--x--x--x--x--x--x--x--x----|--x--x--x--x--x--x--x--x----|
--12-12-12-12-11-11-11-11---|--16-16-16-16-14-14-14-14---|
----------------------------|----------------------------|


----------------------------|----------------------------|
----------------------------|----------------------------|
--14-14-14-14-13-13-13-13---|--18-18-18-18-16-16-16-16---|
--x--x--x--x--x--x--x--x----|--x--x--x--x--x--x--x--x----|
--12-12-12-12-11-11-11-11---|--16-16-16-16-14-14-14-14---|
----------------------------|----------------------------|


-----17-------17------------|-----------12---------------|
--------17-------17---------|--------12----12----12L12---|
--18-------18-------18s14L--|--14-14----------14---------|
----------------------------|----------------------------|
----------------------------|----------------------------|
----------------------------|----------------------------|


-----------12---------------|-----12---------------------|
-----10-------10----10L10---|--------10----10------------|
--9-----9--------9----------|--9--------9-----9L-9L-9----|
----------------------------|----------------------------|
----------------------------|----------------------------|
----------------------------|----------------------------|


-----17-------17------------|-----------12---------------|
--------17-------17---------|--------12----12----12L12---|
--18-------18-------18s14L--|--14-14----------14---------|
----------------------------|----------------------------|
----------------------------|----------------------------|
----------------------------|----------------------------|


-----------12---------------|-----12---------------------|
-----10-------10----10L10---|--------10----10------------|
--9-----9--------9----------|--9--------9-----9L-9L-9----|
----------------------------|----------------------------|
----------------------------|----------------------------|
----------------------------|----------------------------|


-----17-------17------------|-----------12---------------|
--------17-------17---------|--------12----12----12L12---|
--18-------18-------18s14L--|--14-14----------14---------|
----------------------------|----------------------------|
----------------------------|----------------------------|
----------------------------|----------------------------|


-----------12---------------|-----12---------------------|
-----10-------10----10L10---|--------10----10------------|
--9-----9--------9----------|--9--------9-----9L-9L-9----|
----------------------------|----------------------------|
----------------------------|----------------------------|
----------------------------|----------------------------|


-----17-------17------------|-----------12---------------|
--------17-------17---------|--------12----12----12L12---|
--18-------18-------18s14L--|--14-14----------14---------|
----------------------------|----------------------------|
----------------------------|----------------------------|
----------------------------|----------------------------|


-----------12---------------|-----12---------------------|-------|-------|----||
-----10-------10----10L10---|--------10----10------------|--9----|-------|----||
--9-----9--------9----------|--9--------9-----9L-9L-9----|--9----|-------|----||
----------------------------|----------------------------|-------|--0----|----||
----------------------------|----------------------------|-------|--0----|----||
----------------------------|----------------------------|-------|--0----|----||

___________________________________________________________________________________________
-------------------------------------------------------------------------------
___________________________________________________________________________________________

Title: You Smacked Who!?
SubTitle: Drums are not right they were not written by the drummer he had leg surgery 
and couldn't do anything for this song
Artist: Exordium
Album: Instrumentals
Words: John
Music: Exordium
Copyright: Exordium
Tempo = 150
Harmony Guitar

Legend
L - tied note
x - dead note
h - hammer on/pull off
b - bend
s - slide
~ - vibrato
g - ghost note
> - accentuated note
t - trill
M - palm mute
. - staccato
P - popping (bass)
S - slapping (bass)
+ - tapping
W - wide vibrato
< - fade in
w - whammy bar
= - tremolo picking
v - brush up
^ - brush down
V - pick stroke up
n - pick stroke down


D |----|----|----|----|----|----|----|----|----|----|----|----|----|----|----|
A |----|----|----|----|----|----|----|----|----|----|----|----|----|----|----|
F |----|----|----|----|----|----|----|----|----|----|----|----|----|----|----|
C |----|----|----|----|----|----|----|----|----|----|----|----|----|----|----|
G |----|----|----|----|----|----|----|----|----|----|----|----|----|----|----|
C |----|----|----|----|----|----|----|----|----|----|----|----|----|----|----|


----|----|----|----|----|----|----|----|----|----|----|-------|-------|-------|
----|----|----|----|----|----|----|----|----|----|----|-------|-------|-------|
----|----|----|----|----|----|----|----|----|----|----|-------|-------|-------|
----|----|----|----|----|----|----|----|----|----|----|--0L---|--0----|--4L---|
----|----|----|----|----|----|----|----|----|----|----|--0L---|--0----|--4L---|
----|----|----|----|----|----|----|----|----|----|----|--0L---|--0----|--4L---|


-------|-------|-------|-------|-------|----------------------------|
-------|-------|-------|-------|-------|----------------------------|
-------|-------|-------|-------|-------|----------------------------|
--4----|--7L---|--7----|--0L---|--0----|--0--0--0--0--0--0--0--0----|
--4----|--7L---|--7----|--0L---|--0----|--0--0--0--0--0--0--0--0----|
--4----|--7L---|--7----|--0L---|--0----|--0--0--0--0--0--0--0--0----|


----------------------------|----------------------------|
----------------------------|----------------------------|
----------------------------|----------------------------|
--0--0--0--0--0--0--0--0----|--4--4--4--4--4--4--4--4----|
--0--0--0--0--0--0--0--0----|--4--4--4--4--4--4--4--4----|
--0--0--0--0--0--0--0--0----|--4--4--4--4--4--4--4--4----|


----------------------------|----------------------------|
----------------------------|----------------------------|
----------------------------|----------------------------|
--4--4--4--4--4--4--4--4----|--7--7--7--7--7--7--7--7----|
--4--4--4--4--4--4--4--4----|--7--7--7--7--7--7--7--7----|
--4--4--4--4--4--4--4--4----|--7--7--7--7--7--7--7--7----|


----------------------------|----------------------------|
----------------------------|----------------------------|
----------------------------|----------------------------|
--7--7--7--7--7--7--7--7----|--0--0--0--0--0--0--0--0----|
--7--7--7--7--7--7--7--7----|--0--0--0--0--0--0--0--0----|
--7--7--7--7--7--7--7--7----|--0--0--0--0--0--0--0--0----|


----------------------------|----------------------------|
----------------------------|----------------------------|
----------------------------|----------------------------|
--4--4--4--4--4--4--4--4----|--7--7--7--7--7--7--7--7----|
--4--4--4--4--4--4--4--4----|--7--7--7--7--7--7--7--7----|
--4--4--4--4--4--4--4--4----|--7--7--7--7--7--7--7--7----|


----------------------------|----------------------------|
----------------------------|----------------------------|
----------------------------|----------------------------|
--0--0--0--0--0--0--0--0----|--0--0--0--0--0--0--0--0----|
--0--0--0--0--0--0--0--0----|--0--0--0--0--0--0--0--0----|
--0--0--0--0--0--0--0--0----|--0--0--0--0--0--0--0--0----|


----------------------------|----------------------------|
----------------------------|----------------------------|
----------------------------|----------------------------|
--4--4--4--4--4--4--4--4----|--7--7--7--7--7--7--7--7----|
--4--4--4--4--4--4--4--4----|--7--7--7--7--7--7--7--7----|
--4--4--4--4--4--4--4--4----|--7--7--7--7--7--7--7--7----|


----------------------------|----------------------------|
----------------------------|----------------------------|
----------------------------|----------------------------|
--0--0--0--0--0--0--0--0----|--0--0--0--0--0--0--0--0----|
--0--0--0--0--0--0--0--0----|--0--0--0--0--0--0--0--0----|
--0--0--0--0--0--0--0--0----|--0--0--0--0--0--0--0--0----|


----------------------------|----------------------------|
----------------------------|----------------------------|
----------------------------|----------------------------|
--4--4--4--4--4--4--4--4----|--7--7--7--7--7--7--7--7----|
--4--4--4--4--4--4--4--4----|--7--7--7--7--7--7--7--7----|
--4--4--4--4--4--4--4--4----|--7--7--7--7--7--7--7--7----|


----------------------------|----------------------------|
----------------------------|----------------------------|
----------------------------|----------------------------|
--0--0--0--0--0--0--0--0----|--0--0--0--0--0--0--0--0----|
--0--0--0--0--0--0--0--0----|--0--0--0--0--0--0--0--0----|
--0--0--0--0--0--0--0--0----|--0--0--0--0--0--0--0--0----|


----------------------------|----------------------------|
----------------------------|----------------------------|
----------------------------|----------------------------|
--4--4--4--4--4--4--4--4----|--7--7--7--7--7--7--7--7----|
--4--4--4--4--4--4--4--4----|--7--7--7--7--7--7--7--7----|
--4--4--4--4--4--4--4--4----|--7--7--7--7--7--7--7--7----|


----------------------------|----|----|-------|-------|-------|-------|-------|
----------------------------|----|----|-------|-------|-------|-------|-------|
----------------------------|----|----|-------|-------|-------|-------|-------|
--0--0--0--0--0--0--0--0----|----|----|--0L---|--0----|--4L---|--4----|--7L---|
--0--0--0--0--0--0--0--0----|----|----|--0L---|--0----|--4L---|--4----|--7L---|
--0--0--0--0--0--0--0--0----|----|----|--0L---|--0----|--4L---|--4----|--7L---|


-------|-------|-------|----------------------------|
-------|-------|-------|----------------------------|
-------|-------|-------|----------------------------|
--7----|--0L---|--0----|--0--0--0--0--0--0--0--0----|
--7----|--0L---|--0----|--0--0--0--0--0--0--0--0----|
--7----|--0L---|--0----|--0--0--0--0--0--0--0--0----|


----------------------------|----------------------------|
----------------------------|----------------------------|
----------------------------|----------------------------|
--0--0--0--0--0--0--0--0----|--4--4--4--4--4--4--4--4----|
--0--0--0--0--0--0--0--0----|--4--4--4--4--4--4--4--4----|
--0--0--0--0--0--0--0--0----|--4--4--4--4--4--4--4--4----|


----------------------------|----------------------------|
----------------------------|----------------------------|
----------------------------|----------------------------|
--4--4--4--4--4--4--4--4----|--7--7--7--7--7--7--7--7----|
--4--4--4--4--4--4--4--4----|--7--7--7--7--7--7--7--7----|
--4--4--4--4--4--4--4--4----|--7--7--7--7--7--7--7--7----|


----------------------------|----------------------------|
----------------------------|----------------------------|
----------------------------|----------------------------|
--7--7--7--7--7--7--7--7----|--0--0--0--0--0--0--0--0----|
--7--7--7--7--7--7--7--7----|--0--0--0--0--0--0--0--0----|
--7--7--7--7--7--7--7--7----|--0--0--0--0--0--0--0--0----|


----------------------------|----------------------------|
----------------------------|----------------------------|
----------------------------|----------------------------|
--4--4--4--4--4--4--4--4----|--7--7--7--7--7--7--7--7----|
--4--4--4--4--4--4--4--4----|--7--7--7--7--7--7--7--7----|
--4--4--4--4--4--4--4--4----|--7--7--7--7--7--7--7--7----|


----------------------------|----------------------------|
----------------------------|----------------------------|
----------------------------|----------------------------|
--0--0--0--0--0--0--0--0----|--0--0--0--0--0--0--0--0----|
--0--0--0--0--0--0--0--0----|--0--0--0--0--0--0--0--0----|
--0--0--0--0--0--0--0--0----|--0--0--0--0--0--0--0--0----|


----------------------------|----------------------------|
----------------------------|----------------------------|
----------------------------|----------------------------|
--4--4--4--4--4--4--4--4----|--7--7--7--7--7--7--7--7----|
--4--4--4--4--4--4--4--4----|--7--7--7--7--7--7--7--7----|
--4--4--4--4--4--4--4--4----|--7--7--7--7--7--7--7--7----|


----------------------------|----------------------------|
----------------------------|----------------------------|
----------------------------|----------------------------|
--0--0--0--0--0--0--0--0----|--0--0--0--0--0--0--0--0----|
--0--0--0--0--0--0--0--0----|--0--0--0--0--0--0--0--0----|
--0--0--0--0--0--0--0--0----|--0--0--0--0--0--0--0--0----|


----------------------------|----------------------------|
----------------------------|----------------------------|
----------------------------|----------------------------|
--4--4--4--4--4--4--4--4----|--7--7--7--7--7--7--7--7----|
--4--4--4--4--4--4--4--4----|--7--7--7--7--7--7--7--7----|
--4--4--4--4--4--4--4--4----|--7--7--7--7--7--7--7--7----|


----------------------------|----------------------------|
----------------------------|----------------------------|
----------------------------|----------------------------|
--0--0--0--0--0--0--0--0----|--0--0--0--0--0--0--0--0----|
--0--0--0--0--0--0--0--0----|--0--0--0--0--0--0--0--0----|
--0--0--0--0--0--0--0--0----|--0--0--0--0--0--0--0--0----|


----------------------------|----------------------------|
----------------------------|----------------------------|
----------------------------|----------------------------|
--4--4--4--4--4--4--4--4----|--7--7--7--7--7--7--7--7----|
--4--4--4--4--4--4--4--4----|--7--7--7--7--7--7--7--7----|
--4--4--4--4--4--4--4--4----|--7--7--7--7--7--7--7--7----|


----------------------------|----|----|----|----|----|----|
----------------------------|----|----|----|----|----|----|
----------------------------|----|----|----|----|----|----|
--0--0--0--0--0--0--0--0----|----|----|----|----|----|----|
--0--0--0--0--0--0--0--0----|----|----|----|----|----|----|
--0--0--0--0--0--0--0--0----|----|----|----|----|----|----|


----------------------------|----------------------------|----------------|----|
----------------------------|----------------------------|----------------|----|
--14----11----13-13-13-13---|--13L13-14-14L14s-----------|--------9L-9s---|----|
--x-----x-----x--x--x--x----|--x--x--x--x--x-------------|--11L11---------|----|
--12----9-----11-11-11-11---|--11L11-12-12L12s-----------|----------------|----|
----------------------------|----------------------------|----------------|----|


----|----|----|----------------------------|----------------------------|
----|----|----|----------------------------|----------------------------|
----|----|----|--14----11----13-13-13-13---|--13L13-14-14L14s-----------|
----|----|----|--x-----x-----x--x--x--x----|--x--x--x--x--x-------------|
----|----|----|--12----9-----11-11-11-11---|--11L11-12-12L12s-----------|
----|----|----|----------------------------|----------------------------|


----------------|-------|-------|-------|-------|-------|-------|-------|
----------------|-------|-------|-------|-------|-------|-------|-------|
--------9L-9s---|-------|-------|-------|-------|-------|-------|-------|
--11L11---------|--0L---|--0L---|--0L---|--0----|--4L---|--4L---|--4L---|
----------------|--0L---|--0L---|--0L---|--0----|--4L---|--4L---|--4L---|
----------------|--0L---|--0L---|--0L---|--0----|--4L---|--4L---|--4L---|


-------|-------|-------|-------|-------|-------|-------|-------|-------|----|
-------|-------|-------|-------|-------|-------|-------|-------|-------|----|
-------|-------|-------|-------|-------|-------|-------|-------|-------|----|
--4----|--7L---|--7L---|--7L---|--7----|--0L---|--0L---|--0L---|--0----|----|
--4----|--7L---|--7L---|--7L---|--7----|--0L---|--0L---|--0L---|--0----|----|
--4----|--7L---|--7L---|--7L---|--7----|--0L---|--0L---|--0L---|--0----|----|


----|----|----|----------------------------|----------------------------|
----|----|----|----------------------------|----------------------------|
----|----|----|----------------------------|----------------------------|
----|----|----|--0--0--0--0--0--0--0--0----|--0--0--0--0--0--0--0--0----|
----|----|----|--0--0--0--0--0--0--0--0----|--0--0--0--0--0--0--0--0----|
----|----|----|--0--0--0--0--0--0--0--0----|--0--0--0--0--0--0--0--0----|


----------------------------|----------------------------|
----------------------------|----------------------------|
----------------------------|----------------------------|
--4--4--4--4--4--4--4--4----|--4--4--4--4--4--4--4--4----|
--4--4--4--4--4--4--4--4----|--4--4--4--4--4--4--4--4----|
--4--4--4--4--4--4--4--4----|--4--4--4--4--4--4--4--4----|


----------------------------|----------------------------|
----------------------------|----------------------------|
----------------------------|----------------------------|
--7--7--7--7--7--7--7--7----|--7--7--7--7--7--7--7--7----|
--7--7--7--7--7--7--7--7----|--7--7--7--7--7--7--7--7----|
--7--7--7--7--7--7--7--7----|--7--7--7--7--7--7--7--7----|


----------------------------|----------------------------|
----------------------------|----------------------------|
----------------------------|----------------------------|
--0--0--0--0--0--0--0--0----|--4--4--4--4--4--4--4--4----|
--0--0--0--0--0--0--0--0----|--4--4--4--4--4--4--4--4----|
--0--0--0--0--0--0--0--0----|--4--4--4--4--4--4--4--4----|


----------------------------|----------------------------|
----------------------------|----------------------------|
----------------------------|----------------------------|
--7--7--7--7--7--7--7--7----|--0--0--0--0--0--0--0--0----|
--7--7--7--7--7--7--7--7----|--0--0--0--0--0--0--0--0----|
--7--7--7--7--7--7--7--7----|--0--0--0--0--0--0--0--0----|


----------------------------|----------------------------|
----------------------------|----------------------------|
----------------------------|----------------------------|
--0--0--0--0--0--0--0--0----|--4--4--4--4--4--4--4--4----|
--0--0--0--0--0--0--0--0----|--4--4--4--4--4--4--4--4----|
--0--0--0--0--0--0--0--0----|--4--4--4--4--4--4--4--4----|


----------------------------|----------------------------|
----------------------------|----------------------------|
----------------------------|----------------------------|
--7--7--7--7--7--7--7--7----|--0--0--0--0--0--0--0--0----|
--7--7--7--7--7--7--7--7----|--0--0--0--0--0--0--0--0----|
--7--7--7--7--7--7--7--7----|--0--0--0--0--0--0--0--0----|


----------------------------|----------------------------|
----------------------------|----------------------------|
----------------------------|----------------------------|
--0--0--0--0--0--0--0--0----|--4--4--4--4--4--4--4--4----|
--0--0--0--0--0--0--0--0----|--4--4--4--4--4--4--4--4----|
--0--0--0--0--0--0--0--0----|--4--4--4--4--4--4--4--4----|


----------------------------|----------------------------|
----------------------------|----------------------------|
----------------------------|----------------------------|
--7--7--7--7--7--7--7--7----|--0--0--0--0--0--0--0--0----|
--7--7--7--7--7--7--7--7----|--0--0--0--0--0--0--0--0----|
--7--7--7--7--7--7--7--7----|--0--0--0--0--0--0--0--0----|


----------------------------|----------------------------|
----------------------------|----------------------------|
----------------------------|----------------------------|
--0--0--0--0--0--0--0--0----|--4--4--4--4--4--4--4--4----|
--0--0--0--0--0--0--0--0----|--4--4--4--4--4--4--4--4----|
--0--0--0--0--0--0--0--0----|--4--4--4--4--4--4--4--4----|


----------------------------|----------------------------|----|----|----||
----------------------------|----------------------------|----|----|----||
----------------------------|----------------------------|----|----|----||
--7--7--7--7--7--7--7--7----|--0--0--0--0--0--0--0--0----|----|----|----||
--7--7--7--7--7--7--7--7----|--0--0--0--0--0--0--0--0----|----|----|----||
--7--7--7--7--7--7--7--7----|--0--0--0--0--0--0--0--0----|----|----|----||

________________________________________________________________________________________
----------------------------------------------------------------------------
________________________________________________________________________________________

Title: You Smacked Who!?
SubTitle: Drums are not right they were not written by the drummer he had leg surgery 
and couldn't do anything for this song
Artist: Exordium
Album: Instrumentals
Words: John
Music: Exordium
Copyright: Exordium
Tempo = 150
Back Up Guitar

Legend
L - tied note
x - dead note
h - hammer on/pull off
b - bend
s - slide
~ - vibrato
g - ghost note
> - accentuated note
t - trill
M - palm mute
. - staccato
P - popping (bass)
S - slapping (bass)
+ - tapping
W - wide vibrato
< - fade in
w - whammy bar
= - tremolo picking
v - brush up
^ - brush down
V - pick stroke up
n - pick stroke down


D |----|----|----|----|----|----|----|----|----|----|----|----|----|----|----|
A |----|----|----|----|----|----|----|----|----|----|----|----|----|----|----|
F |----|----|----|----|----|----|----|----|----|----|----|----|----|----|----|
C |----|----|----|----|----|----|----|----|----|----|----|----|----|----|----|
G |----|----|----|----|----|----|----|----|----|----|----|----|----|----|----|
C |----|----|----|----|----|----|----|----|----|----|----|----|----|----|----|


----|----|----|----|----|----|----|----|----|----|----|----|----|----|----|----|
----|----|----|----|----|----|----|----|----|----|----|----|----|----|----|----|
----|----|----|----|----|----|----|----|----|----|----|----|----|----|----|----|
----|----|----|----|----|----|----|----|----|----|----|----|----|----|----|----|
----|----|----|----|----|----|----|----|----|----|----|----|----|----|----|----|
----|----|----|----|----|----|----|----|----|----|----|----|----|----|----|----|


----|----|----|----|----|----|----|----|----|----|----|----|----|----|----|----|
----|----|----|----|----|----|----|----|----|----|----|----|----|----|----|----|
----|----|----|----|----|----|----|----|----|----|----|----|----|----|----|----|
----|----|----|----|----|----|----|----|----|----|----|----|----|----|----|----|
----|----|----|----|----|----|----|----|----|----|----|----|----|----|----|----|
----|----|----|----|----|----|----|----|----|----|----|----|----|----|----|----|


----|-------|-------|-------|-------|-------|-------|-------|-------|----|----|
----|-------|-------|-------|-------|-------|-------|-------|-------|----|----|
----|--18L--|--18L--|--18L--|--18---|--16L--|--16L--|--16L--|--16---|----|----|
----|--x----|--x----|--x----|--x----|--x----|--x----|--x----|--x----|----|----|
----|--16L--|--16L--|--16L--|--16---|--14L--|--14L--|--14L--|--14---|----|----|
----|-------|-------|-------|-------|-------|-------|-------|-------|----|----|


----|----|----|----|----|----|----|----|----|----|----|----|----|----|----|----|
----|----|----|----|----|----|----|----|----|----|----|----|----|----|----|----|
----|----|----|----|----|----|----|----|----|----|----|----|----|----|----|----|
----|----|----|----|----|----|----|----|----|----|----|----|----|----|----|----|
----|----|----|----|----|----|----|----|----|----|----|----|----|----|----|----|
----|----|----|----|----|----|----|----|----|----|----|----|----|----|----|----|


----|----|----|----|----|----|-------|-------|-------|-------|-------|-------|
----|----|----|----|----|----|-------|-------|-------|-------|-------|-------|
----|----|----|----|----|----|--18L--|--18L--|--18L--|--18---|--16L--|--16L--|
----|----|----|----|----|----|--x----|--x----|--x----|--x----|--x----|--x----|
----|----|----|----|----|----|--16L--|--16L--|--16L--|--16---|--14L--|--14L--|
----|----|----|----|----|----|-------|-------|-------|-------|-------|-------|


-------|-------|----|----|----|----|----|----|----|----|----|----|----|----|
-------|-------|----|----|----|----|----|----|----|----|----|----|----|----|
--16L--|--16---|----|----|----|----|----|----|----|----|----|----|----|----|
--x----|--x----|----|----|----|----|----|----|----|----|----|----|----|----|
--14L--|--14---|----|----|----|----|----|----|----|----|----|----|----|----|
-------|-------|----|----|----|----|----|----|----|----|----|----|----|----|


----|----|----|----|----|----|----|----|----|----|----|----|----|----|----|----|
----|----|----|----|----|----|----|----|----|----|----|----|----|----|----|----|
----|----|----|----|----|----|----|----|----|----|----|----|----|----|----|----|
----|----|----|----|----|----|----|----|----|----|----|----|----|----|----|----|
----|----|----|----|----|----|----|----|----|----|----|----|----|----|----|----|
----|----|----|----|----|----|----|----|----|----|----|----|----|----|----|----|


----|----|----|----|----|----|----|----|----|----|----|----|----|----|----|----|
----|----|----|----|----|----|----|----|----|----|----|----|----|----|----|----|
----|----|----|----|----|----|----|----|----|----|----|----|----|----|----|----|
----|----|----|----|----|----|----|----|----|----|----|----|----|----|----|----|
----|----|----|----|----|----|----|----|----|----|----|----|----|----|----|----|
----|----|----|----|----|----|----|----|----|----|----|----|----|----|----|----|


----|----|----|----|----|----|-------|-------|-------|-------|-------|-------|
----|----|----|----|----|----|-------|-------|-------|-------|-------|-------|
----|----|----|----|----|----|--18L--|--18L--|--18L--|--18---|--16L--|--16L--|
----|----|----|----|----|----|--x----|--x----|--x----|--x----|--x----|--x----|
----|----|----|----|----|----|--16L--|--16L--|--16L--|--16---|--14L--|--14L--|
----|----|----|----|----|----|-------|-------|-------|-------|-------|-------|


-------|-------|----|----|----||
-------|-------|----|----|----||
--16L--|--16---|----|----|----||
--x----|--x----|----|----|----||
--14L--|--14---|----|----|----||
-------|-------|----|----|----||
Добавлено: 03.12.2013
Другие материалы по этой песне:

Страница создана 20.07.2013
http://primanota.ru/misc-unsigned-bands/exordium-you-smacked-who-chords.htm
Привет, Гость.
Предлагаем пройти революционный курс по гитаре.
Подарок от PrimaNota.Ru, забирай!