PrimaNota.ru - самый крупный в мире бесплатный архив песенных текстов, аккордов, табулатур и нот


Misc Unsigned Bands - Exigency - Exigency - бас-таба

Регистрация Запомнить меня
Войти через:  Facebook Google Twitter Vk Yandex Mail.ru

Misc Unsigned Bands - Exigency - Exigency - бас-таба

Печатать
Просмотров: 46
Intro:

-------------------------------------|
---9-8-7---9-8-7---9-8-7----------6--|
-9--7-7-69--7-7-69--7-7-69-8-7-6-5---|
--9-------9-------9-------9-8-7-6--5-|

Verse 1:

----------------------------------|
----------------------------------|
----------------------------------|
-0000567-000058760000567-00005876-| (2x)

Chorus:

-----------------------------------|
-----------------------------------|
-75----75----757575----75----75757-|
----57----57--------57----57-------|

Verse 2:

----------------------------------|
----------------------------------|
-0000567-000058760000567-00005876-|
----------------------------------| (2x)

Chorus 2:

-----------------------------------|
-----------------75----75----75757-|
-75----75----7575---57----57-------|
----57----57-----------------------|

Verse 2:
---------------------------------------------------------------------|
---------------------------------------------------------------------|
-----------------------------------0000567-000058760000567-000058765-|
-0000567-0000568760000567-00005876-----------------------------------|
Добавлено: 14.09.2013
Другие материалы по этой песне:
  • Аккорды и текст

Страница создана 14.09.2013
http://primanota.ru/misc-unsigned-bands/exigency-exigency-chords.htm
Привет, Гость.
Предлагаем пройти революционный курс по гитаре.
Подарок от PrimaNota.Ru, забирай!