PrimaNota.ru - самый крупный в мире бесплатный архив песенных текстов, аккордов, табулатур и нот


Misc Unsigned Bands - Everyday Shooter - Porco In The Sky Cloud Level - таба

Регистрация Запомнить меня
Войти через:  Facebook Google Twitter Vk Yandex Mail.ru

Misc Unsigned Bands - Everyday Shooter - Porco In The Sky Cloud Level - таба

Печатать
Просмотров: 40
-------------------------------------------------------------------------------
           Porco in the Sky Cloud Level - Everyday Shooter by Jonathan Mak
-------------------------------------------------------------------------------
Tabbed by: Jeff Maginniss
Email: peridot203@gmail.com

Tuning: Standard E-A-D-G-B-e

Tempo: quick paced blues

Performance note: heavy reverb and a slight echo is used.  Best with
clean electric guitar or accoustic with nickle wound strings.

Performance suggestion: listen to the song to pick up which notes are
stressed during the accent attacks when strumming.  Many of the chords
are played ringing, but strummed... however, certain strings are stressed
more heavily than others.


=========== Intro

   Am      Bsus4 C         Am        Am      Bsus4 C         Am      

e|-----------------------------0---|-----------------------------0---|
B|----1--------1-------------1---1-|----1--------1-------------1---1-|
G|-----------0---------------------|-----------0---------------------|
D|---------------------------------|---------------------------------|
A|-0-----0-2-----3---3-3---2-------|-0-----0-2-----3---3-3---2-------|
E|---------------------------------|---------------------------------|

   Am      Bsus4 C         Am        Am      Bsus4 C         Am      

e|-----------------------------0---|-----------------------------0---|
B|----1--------1-------------1---1-|----1--------1-------------1---1-|
G|-----------0---------------------|-----------0---------------------|
D|---------------------------------|---------------------------------|
A|-0-----0-2-----3---3-3---2-------|-0-----0-2-----3---3-3---2-------|
E|---------------------------------|---------------------------------|

=========== 

   FM7                               G6

e|---------0---------------0-------|-------0-----0---------0---------|
B|-----1-----1---1---1---1---1-1--1/3--3-----3-------3-------3---3---|
G|-------2-----2-------2---------2-|-----4-----4---4---4-------4---4-|
D|-3-------------------------------|-5-------------------5-----------|
A|---------------------------------|---------------------------------|
E|---------------------------------|---------------------------------|

   FM7                               G6

e|---------0---------------0-------|-------0-----0-----------0----0--|
B|-----1-----1---1---1---1---1-1--1/3--3-----3---------------1----3--|
G|-------2-----2-------2---------2-|-----4-----4-------------2----4--|
D|-3-------------------------------|-5-----------------------3----5--|
A|---------------------------------|---------------------------------|
E|---------------------------------|---------------------------------|

   Cm7

e|-0-------------------------------|
B|-0-------------------------------|
G|-0-------------------------------|
D|-2-------------------------------|
A|(3)------------------------------|
E|---------------------------------|
   Anchor ghost note but don't strum.

=========== 

   Am      Bsus4 C         Am        Am      Bsus4 C         Am      

e|-----------------------------0---|-----------------------------0---|
B|----1--------1-------------1---1-|----1--------1-------------1---1-|
G|-----------0---------------------|-----------0---------------------|
D|---------------------------------|---------------------------------|
A|-0-----0-2-----3---3-3---2-------|-0-----0-2-----3---3-3---2-------|
E|---------------------------------|---------------------------------|

   Am      Bsus4 C         Am        Am      Bsus4 C         Am      

e|-----------------------------0---|-----------------------------0---|
B|----1--------1-------------1---1-|----1--------1-------------1---1-|
G|-----------0---------------------|-----------0---------------------|
D|---------------------------------|---------------------------------|
A|-0-----0-2-----3---3-3---2-------|-0-----0-2-----3---3-3---2-------|
E|---------------------------------|---------------------------------|

=========== Bridge

   FM7                               G6

e|---------0---------------0-------|-------0-----0---------0---------|
B|-----1-----1---1---1---1---1-1--1/3--3-----3-------3-------3---3---|
G|-------2-----2-------2---------2-|-----4-----4---4---4-------4---4-|
D|-3-------------------------------|-5-------------------5-----------|
A|---------------------------------|---------------------------------|
E|---------------------------------|---------------------------------|

   FM7                               G6

e|---------0---------------0-------|-------0-----0-----------0----0--|
B|-----1-----1---1---1---1---1-1--1/3--3-----3---------------1----3--|
G|-------2-----2-------2---------2-|-----4-----4-------------2----4--|
D|-3-------------------------------|-5-----------------------3----5--|
A|---------------------------------|---------------------------------|
E|---------------------------------|---------------------------------|

   Cm7

e|-0-------------------------------|
B|-0-------------------------------|
G|-0-------------------------------|
D|-2-------------------------------|
A|(3)------------------------------|
E|---------------------------------|

=========== Chorus

   Fm7             Em                Fm7                Em
                   ^  ^    ^  
e|-0-0-----30---0--0--0--0000-0000-|-0-0-------0--------0000--0000-00-|
B|-1-1h3p0----3----0--0--0000-0000-|-1-1h3p0-3----------0000--0000-00-|
G|-2-2-------------0--0--0000-0000-|-2-2-----------2----0000--0000-00-|
D|-3-3-------------2--2--2222-2222-|-3-3---------3---2--2222--2222-22-|
A|---------------------------------|----------------------------------|
E|---------------------------------|----------------------------------|

   Fm7             Em                Fm7             Cm7
                   ^  ^    ^  
e|-0-0-----30---0--0--0--0000-0000-|-0-0-------------0------------0-0-|
B|-1-1h3p0----3----0--0--0000-0000-|-1-1h3p0-3p0-3-0-0------------0-0-|
G|-2-2-------------0--0--0000-0000-|-2-2-------------0------------0-0-|
D|-3-3-------------2--2--2222-2222-|-3-3-------------2------------2-2-|
A|---------------------------------|-----------------3----------------|
E|---------------------------------|----------------------------------|

   Fm7              G6                Fm7              G6

e|-0---0--0-00-0-00-0---0-00-00-0-00|-0---0--0-00-0-00-0---0-00-00-0-00|
B|-1---1--1-11-1-11-3---3-55-33-3-55|-1---1--1-11-1-11-3---3-55-33-3-55|
G|-2---0--2-22-0-22-4---4-44-44-4-44|-2---0--2-22-0-22-4---4-44-44-4-44|
D|-3---3--3-33-3-33-5---5-55-55-5-55|-3---3--3-33-3-33-5---5-55-55-5-55|
A|----------------------------------|----------------------------------|
E|----------------------------------|----------------------------------|
          Stress on:3   4 55 33 4 55        Stress on:3   4 55 33 4 55

   Cm7

e|-0--00-0--00-0-0-0--00-0--00-0-0-|
B|-0--00-0--00-0-0-0--00-0--00-0-0-|
G|-0--00-0--00-0-0-0--00-0--00-0-0-|
D|-2--22-2--22-2-2-2--22-2--22-2-2-|
A|(3)------------------------------|
E|---------------------------------|

   Fm7             Em                Fm7                Cm7
                   ^  ^    ^  
e|-0-0-----30---0--0--0--0000-0000-|-0-0-------0--------0000--0000-00-|
B|-1-1h3p0----3----0--0--0000-0000-|-1-1h3p0-3----------0000--0000-00-|
G|-2-2-------------0--0--0000-0000-|-2-2-----------2----0000--0000-00-|
D|-3-3-------------2--2--2222-2222-|-3-3---------3---2--2222--2222-22-|
A|---------------------------------|-------------------(3)------------|
E|---------------------------------|----------------------------------|

   Fm7             Cm7               Fm7             Em
                   ^  ^    ^  
e|-0-0-----30---0--0--0--0000-0000-|-0-0-------------0----------------|
B|-1-1h3p0----3----0--0--0000-0000-|-1-1h3p0-3p0-3-0-0----------------|
G|-2-2-------------0--0--0000-0000-|-2-2-------------0----------------|
D|-3-3-------------2--2--2222-2222-|-3-3-------------2----------------|
A|----------------(3)--------------|----------------(3)---------------|
E|---------------------------------|----------------------------------|

=========== Rythem 1

   Fm7                               Cm7

e|-0---------------0-0-0-0-00-0000-|-0---------------0-0-0-0-00-0000-|
B|-1---------------1-1-1-1-11-1111-|-0---------------0-0-0-0-00-0000-|
G|-2---------------2-2-2-2-22-2222-|-0---------------0-0-0-0-00-0000-|
D|-3---------------3-3-3-3-33-3333-|-2---------------2-2-2-2-22-2222-|
A|---------------------------------|-3---------------3-3-3-3-33-3333-|
E|---------------------------------|---------------------------------|

   Fm7                               Cm7

e|-0---------------0-0-0-0-00-0000-|-0---------------0-0-0-0-00-0000-|
B|-1---------------1-1-1-1-11-1111-|-0---------------0-0-0-0-00-0000-|
G|-2---------------2-2-2-2-22-2222-|-0---------------0-0-0-0-00-0000-|
D|-3---------------3-3-3-3-33-3333-|-2---------------2-2-2-2-22-2222-|
A|---------------------------------|-3---------------3-3-3-3-33-3333-|
E|---------------------------------|---------------------------------|

   Fm7                               Cm7

e|-0---------------3p0-------------|-0-------------------------------|
B|-1-------------------------------|-0-------------------------------|
G|-2----------------------------2--|-0-------------------------------|
D|-3------------------------3------|-2-------------------------------|
A|---------------------------------|-3-------------------------------|
E|---------------------------------|---------------------------------|
                   Let Ring...       ^ Arpeggiate from Low to High
  (Cm7)

e|(0)------------------------------|
B|(0)------------------------------|
G|(0)------------------------------|
D|(2)------------------------------|
A|(3)------------------------------|
E|---------------------------------|
   Held from previous measure

=========== Rythem 2

   Am      Bsus4 C         Am        Am      Bsus4 C         Am      

e|-----------------------------0---|-----------------------------0---|
B|----1--------1-------------1---1-|----1--------1-------------1---1-|
G|-----------0---------------------|-----------0---------------------|
D|---------------------------------|---------------------------------|
A|-0-----0-2-----3---3-3---2-------|-0-----0-2-----3---3-3---2-------|
E|---------------------------------|---------------------------------|

   Am      Bsus4 C         Am        Am      Bsus4 C         Am      

e|-----------------------------0---|-----------------------------0---|
B|----1--------1-------------1---1-|----1--------1-------------1---1-|
G|-----------0---------------------|-----------0---------------------|
D|---------------------------------|---------------------------------|
A|-0-----0-2-----3---3-3---2-------|-0-----0-2-----3---3-3---2-------|
E|---------------------------------|---------------------------------|

=========== Bridge

   FM7                               G6

e|---------0---------------0-------|-------0-----0---------0---------|
B|-----1-----1---1---1---1---1-1--1/3--3-----3-------3-------3---3---|
G|-------2-----2-------2---------2-|-----4-----4---4---4-------4---4-|
D|-3-------------------------------|-5-------------------5-----------|
A|---------------------------------|---------------------------------|
E|---------------------------------|---------------------------------|

   FM7                               G6

e|---------0---------------0-------|-------0-----0-----------0----0--|
B|-----1-----1---1---1---1---1-1--1/3--3-----3---------------1----3--|
G|-------2-----2-------2---------2-|-----4-----4-------------2----4--|
D|-3-------------------------------|-5-----------------------3----5--|
A|---------------------------------|---------------------------------|
E|---------------------------------|---------------------------------|

   G

e|-0-------------------------------|
B|-0-------------------------------|
G|-4-------------------------------|
D|-5-------------------------------|
A|-5-------------------------------|
E|(3)------------------------------|

=========== Outro

   Fm7             G6                Cadd9

e|----0---------------0------------|-0-------------------------------|
B|----1---------------3------------|-3-------------------------------|
G|----2---------------4------------|-0-------------------------------|
D|-3---------------5---------------|-2-------------------------------|
A|---------------------------------|-3-------------------------------|
E|---------------------------------|---------------------------------|

                                     Arpeggiate slowly from low to high.

Performance note: last chord should be clean and clear... pay particular
attention to the nuances of the 3rd fret on B and open string on high E
not to be too loud as to overpower the root and 5th!


| /  slide up
| \  slide down
| ^  accent note on downstroke
| h  hammer-on
| p  pull-off
| ~  vibrato
| +  harmonic
| x  Mute note
===============================================================================
Добавлено: 31.10.2013
Другие материалы по этой песне:
  • Аккорды и текст

Страница создана 31.10.2013
http://primanota.ru/misc-unsigned-bands/everyday-shooter-porco-in-the-sky-cloud-level-chords.htm
Привет, Гость.
Предлагаем пройти революционный курс по гитаре.
Подарок от PrimaNota.Ru, забирай!