PrimaNota.ru - самый крупный в мире бесплатный архив песенных текстов, аккордов, табулатур и нот


Misc Unsigned Bands - Everyday Shooter - Lush Look Killer Level - таба

Регистрация Запомнить меня
Войти через:  Facebook Google Twitter Vk Yandex Mail.ru

Misc Unsigned Bands - Everyday Shooter - Lush Look Killer Level - таба

Печатать
Просмотров: 37
-------------------------------------------------------------------------------
                 Lush Look Killer Level - Everyday Shooter by Jonathan Mak
-------------------------------------------------------------------------------
Tabbed by: Jeff Maginniss
Email: peridot203@gmail.com

Tuning: Standard E-A-D-G-B-e

Tempo: quick paced blues

Chords:
    
         E A D G B e
---------------------
Am7    :   0 2 2 1 3

D7     :     0 2 1 2

D      :     0 2 3 2

D7omit3:     0 2 1 0


=========== Rythem 1

   Am7                     D7         Am7                     D
e|----------------------------------|----------------------------------|
B|-------------------------xxxx-----|----------------------------------|
G|---------55--------------7777-557-|---------55--------------55-------|
D|-----5/7----5-7-7-----5/7---------|-----5/7----5-7-7-----5/7---3-----|
A|----------------------------------|------------------------------5---|
E|-3/5--------------3/5-------------|-3/5--------------3/5-------------|
    |   ^3rd finger  |   ^3rd finger   |   ^3rd finger  |   ^3rd finger
    ^Thumb Slide     ^Thumb Slide      ^Thumb Slide     ^Thumb Slide

   Am7                     D7         Am7                     D
e|----------------------------------|----------------------------------|
B|-------------------------xxxx-----|----------------------------------|
G|---------55--------------7777-557-|---------55--------------55-------|
D|-----5/7----5-7-7-----5/7---------|-----5/7----5-7-7-----5/7---3-----|
A|----------------------------------|------------------------------5---|
E|-3/5--------------3/5-------------|-3/5--------------3/5------------x|

=========== Bridge

                                                                  Am7
      ^^  ^^  ^^       ^^  ^^  ^^        ^^  ^^  ^^       ^^  ^^  ^^     
e|----------------------------------|------------------------(3)--3333-|
B|----xxxxxxxxxxxx-----xxxxxxxxxxxx-|----xxxxxxxxxxxx-----xxxxx(1)1111-|
G|----xxxxxxxxxxxx-----xxxxxxxxxxxx-|----xxxxxxxxxxxx-----xxxxxxx(2)22-|
D|----xxxxxxxxxxxx-----xxxxxxxxxxxx-|----xxxxxxxxxxxx-----xxxxxxxxxx22-|
A|----xxxxxxxxxxxx-----xxxxxxxxxxxx-|----xxxxxxxxxxxx-----xxxxxxxxxx00-|
E|3/5-(5)----------3/5-(5)----------|3/5-(5)----------3/5--------------|
      Palm Mute all strings, let root (5) ring out      Slowly Lift off
                                                        palm mute from
                                                        high strings 1st

=========== Chorus

   Am7              D7                Am7              D7

   ^   ** ^         ^   ** ^          ^   ** ^         ^   ** ^
e|-3--333-3-333333--2--222-2-222222-|-3--333-3-333333--2--222-2-222222-|
B|-1--111-1-111111--1--111-1-111111-|-1--111-1-111111--1--111-1-111111-|
G|-2--222-2-222222--2--222-2-222222-|-2--222-2-222222--2--222-2-222222-|
D|-2--222-2-222222--0--000-0-000000-|-2--222-2-222222--0--000-0-000000-|
A|-0--000-0-000000------------------|-0--000-0-000000------------------|
E|----------------------------------|----------------------------------|
* = slight palm mutes
^ = down stroke accents with pick

   Am7              D7                Am7              D7

   ^   ** ^         ^   ** ^          ^   ** ^         ^   ** ^
e|-3--333-3-333333--2--222-2-222222-|-3--333-3-333333--2--222-2-222222-|
B|-1--111-1-111111--1--111-1-111111-|-1--111-1-111111--1--111-1-111111-|
G|-2--222-2-222222--2--222-2-222222-|-2--222-2-222222--2--222-2-222222-|
D|-2--222-2-222222--0--000-0-000000-|-2--222-2-222222--0--000-0-000000-|
A|-0--000-0-000000------------------|-0--000-0-000000------------------|
E|----------------------------------|----------------------------------|
* = slight palm mutes
^ = down stroke accents with pick

   Am7              D7
e|-3----------------2---------------|
B|-1----------------1---------------|
G|-2----------------2---------------|
D|-2----------------0---------------|
A|-0--------------------------------|
E|----------------------------------|
   Let Ring...      Let Ring

Performance note: this should sound dirty/grungy with overdrive on
electric or by letting all notes ring on accoustic.  Rythem helps to
count in your head as: ONE...234FIVE, 123456 ONE...234FIVE, 123456

=========== Rythem 2

   Am7                     D7         Am7                     D
e|----------------------------------|----------------------------------|
B|-------------------------xxxx-----|----------------------------------|
G|---------55--------------7777-557-|---------55--------------55-------|
D|-----5/7----5-7-7-----5/7---------|-----5/7----5-7-7-----5/7---3-----|
A|----------------------------------|------------------------------5---|
E|-3/5--------------3/5-------------|-3/5--------------3/5-------------|
    |   ^3rd finger  |   ^3rd finger   |   ^3rd finger  |   ^3rd finger
    ^Thumb Slide     ^Thumb Slide      ^Thumb Slide     ^Thumb Slide

   Am7                     D7         Am7                     D
e|----------------------------------|----------------------------------|
B|-------------------------xxxx-----|----------------------------------|
G|---------55--------------7777-557-|---------55--------------55-------|
D|-----5/7----5-7-7-----5/7---------|-----5/7----5-7-7-----5/7---3-----|
A|----------------------------------|------------------------------5---|
E|-3/5--------------3/5-------------|-3/5--------------3/5------------x|

=========== Bridge

                                                                  Am7
      ^^  ^^  ^^       ^^  ^^  ^^        ^^  ^^  ^^       ^^  ^^  ^^     
e|----------------------------------|------------------------(3)--3333-|
B|----xxxxxxxxxxxx-----xxxxxxxxxxxx-|----xxxxxxxxxxxx-----xxxxx(1)1111-|
G|----xxxxxxxxxxxx-----xxxxxxxxxxxx-|----xxxxxxxxxxxx-----xxxxxxx(2)22-|
D|----xxxxxxxxxxxx-----xxxxxxxxxxxx-|----xxxxxxxxxxxx-----xxxxxxxxxx22-|
A|----xxxxxxxxxxxx-----xxxxxxxxxxxx-|----xxxxxxxxxxxx-----xxxxxxxxxx00-|
E|3/5-(5)----------3/5-(5)----------|3/5-(5)----------3/5--------------|
      Palm Mute all strings, let root (5) ring out      Slowly Lift off
                                                        palm mute from
                                                        high strings 1st

=========== Chorus

   Am7              D7                Am7              D7
   ^   ** ^         ^   ** ^          ^   ** ^         ^   ** ^
e|-3--333-3-333333--2--222-2-222222-|-3--333-3-333333--2--222-2-222222-|
B|-1--111-1-111111--1--111-1-111111-|-1--111-1-111111--1--111-1-111111-|
G|-2--222-2-222222--2--222-2-222222-|-2--222-2-222222--2--222-2-222222-|
D|-2--222-2-222222--0--000-0-000000-|-2--222-2-222222--0--000-0-000000-|
A|-0--000-0-000000------------------|-0--000-0-000000------------------|
E|----------------------------------|----------------------------------|
* = slight palm mutes
^ = down stroke accents with pick

   Am7              D7                Am7              D7
   ^   ** ^         ^   ** ^          ^   ** ^         ^   ** ^
e|-3--333-3-333333--2--222-2-222222-|-3--333-3-333333--2--222-2-222222-|
B|-1--111-1-111111--1--111-1-111111-|-1--111-1-111111--1--111-1-111111-|
G|-2--222-2-222222--2--222-2-222222-|-2--222-2-222222--2--222-2-222222-|
D|-2--222-2-222222--0--000-0-000000-|-2--222-2-222222--0--000-0-000000-|
A|-0--000-0-000000------------------|-0--000-0-000000------------------|
E|----------------------------------|----------------------------------|
* = slight palm mutes
^ = down stroke accents with pick


   Am7              D7                Am7              D7
e|-3----------------2---------------|-3----------------2---------------|
B|-1----------------1---------------|-1----------------1---------------|
G|-2----------------2---------------|-2----------------2---------------|
D|-2----------------0---------------|-2----------------0---------------|
A|-0--------------------------------|-0--------------------------------|
E|----------------------------------|----------------------------------|
   Let Ring...      Let Ring....      Let Ring...      Let Ring...

   Am7              D7                Am7              D7
e|-3----------------2---------------|-3----------------2---------------|
B|-1----------------1---------------|-1----------------1---------------|
G|-2----------------2---------------|-2----------------2---------------|
D|-2----------------0---------------|-2----------------0---------------|
A|-0--------------------------------|-0--------------------------------|
E|----------------------------------|----------------------------------|
   Let Ring...      Let Ring....      Let Ring...      Let Ring...

=========== Bridge

   Am               D7                Am7              D7
   ^        ^ ^     ^         ^ ^     ^        ^ ^     ^         ^ ^   
e|------------------2-222222--------|------------------2-222222--------|
B|-1-111111-1-3-----1-111111--------|-1-111111-1-3-----1-111111--------|
G|-2-222222-----0---2-222222--------|-2-222222-----0---2-222222--------|
D|-2-222222---------0-000000--------|-2-222222---------0-000000--------|
A|-0-000000-----------------------0-|-0-000000-----------------------0-|
E|----------------------------3-5---|----------------------------3-5---|

   Am               D7                Am7              D7
   ^        ^ ^     ^         ^ ^     ^        ^ ^     ^   ^       ^
e|------------------2-222222--------|------------------22222-----------|
B|-1-111111-1-3-----1-111111--------|-1-111111-1-3-----11111-----------|
G|-2-222222-----0---2-222222--------|-2-222222-----0---22222-----------|
D|-2-222222---------0-000000--------|-2-222222---------00000-----------|
A|-0-000000-----------------------0-|-0-000000-----------------------0-|
E|----------------------------3-5---|------------------------3333335---|


=========== Chorus

   Am7              D7                Am7              D7

   ^   ** ^         ^   ** ^          ^   ** ^         ^   ** ^
e|-3--333-3-333333--2--222-2-222222-|-3--333-3-333333--2--222-2-222222-|
B|-1--111-1-111111--1--111-1-111111-|-1--111-1-111111--1--111-1-111111-|
G|-2--222-2-222222--2--222-2-222222-|-2--222-2-222222--2--222-2-222222-|
D|-2--222-2-222222--0--000-0-000000-|-2--222-2-222222--0--000-0-000000-|
A|-0--000-0-000000------------------|-0--000-0-000000------------------|
E|----------------------------------|----------------------------------|
* = slight palm mutes
^ = down stroke accents with pick

   Am7              D7                Am7              D7

   ^   ** ^         ^   ** ^          ^   ** ^         ^   ** ^
e|-3--333-3-333333--2--222-2-222222-|-3--333-3-333333--2--222-2-222222-|
B|-1--111-1-111111--1--111-1-111111-|-1--111-1-111111--1--111-1-111111-|
G|-2--222-2-222222--2--222-2-222222-|-2--222-2-222222--2--222-2-222222-|
D|-2--222-2-222222--0--000-0-000000-|-2--222-2-222222--0--000-0-000000-|
A|-0--000-0-000000------------------|-0--000-0-000000------------------|
E|----------------------------------|----------------------------------|
* = slight palm mutes
^ = down stroke accents with pick


   Am7              D7                Am7              D7
e|-3----------------2---------------|-3----------------2---------------|
B|-1----------------1---------------|-1----------------1---------------|
G|-2----------------2---------------|-2----------------2---------------|
D|-2----------------0---------------|-2----------------0---------------|
A|-0--------------------------------|-0--------------------------------|
E|----------------------------------|----------------------------------|
   Let Ring...      Let Ring....      Let Ring...      Let Ring...

   Am7              D7                Am7              Am7
e|-3----------------2---------------|-3----------------3---------------|
B|-1----------------1---------------|-1----------------1---------------|
G|-2----------------2---------------|-2----------------2---------------|
D|-2----------------0---------------|-2----------------2---------------|
A|-0--------------------------------|-0----------------0---------------|
E|----------------------------------|----------------------------------|
   Let Ring...      Let Ring....      Let Ring...      Let Ring...

=========== Rythem 3

   Am7              D7                Am7              D7
e|-3----------------2------3-3------|-3----------------2----------3-0--|
B|-1------3-3-3-1---1----1-----3-1--|-1------3-3-3-1---1------1-3------|
G|-2----2-----------2---------------|-2----2-----------2---------------|
D|-2----------------0---------------|-2----------------0---------------|
A|-0--------------------------------|-0--------------------------------|
E|----------------------------------|----------------------------------|
   Let Ring...      Let Ring....      Let Ring...      Let Ring...

   Am7              D7                Am7              D7
e|-3----------------2------3-3------|-3----------------2------3-3-3-3--|
B|-1------3-3-3-1---1----1-----3-1--|-1------3-3-3-1---1------3-3-3-1--|
G|-2----2-----------2---------------|-2----2-----------2---------------|
D|-2----------------0---------------|-2----------------0---------------|
A|-0--------------------------------|-0--------------------------------|
E|----------------------------------|----------------------------------|
   Let Ring...      Let Ring....      Let Ring...      Let Ring...

=========== Bridge ver.2

   Am7              D7                Am7              D7
e|-3--3-------------2--2--33333332--|-3--3-------------2--2--33333332--|
B|-1--1--333333331--1--1--33333331--|-1--1--333333331--1--1--33333331--|
G|-2--2--222222222--2--2--22222222--|-2--2--222222222--2--2--22222222--|
D|-2--2--222222222--0--0--00000000--|-2--2--222222222--0--0--00000000--|
A|-0--0--000000000------------------|-0--0--000000000------------------|
E|----------------------------------|----------------------------------|

   Am7              D7                Am7              D7
e|-3--3-------------2--2--33333332--|-3--3-------------2--2--33333332--|
B|-1--1--333333331--1--1--33333331--|-1--1--333333331--1--1--33333331--|
G|-2--2--222222222--2--2--22222222--|-2--2--222222222--2--2--22222222--|
D|-2--2--222222222--0--0--00000000--|-2--2--222222222--0--0--00000000--|
A|-0--0--000000000------------------|-0--0--000000000------------------|
E|----------------------------------|----------------------------------|

=========== Chorus ver.2

   Am7              D7                Am7              D7
   ^   ** ^         ^   ** ^          ^   ** ^         ^   ** 
e|-3--333-3-333333--2--222-2-222222-|-3--333-3-333333--2--222-33333333-|
B|-1--111-1-111111--1--111-1-111111-|-1--111-1-111111--1--111-11111111-|
G|-2--222-2-222222--2--222-2-222222-|-2--222-2-222222--2--222-22222222-|
D|-2--222-2-222222--0--000-0-000000-|-2--222-2-222222--0--000-00000000-|
A|-0--000-0-000000------------------|-0--000-0-000000------------------|
E|----------------------------------|----------------------------------|
* = slight palm mutes
^ = down stroke accents with pick

   Am7              D7                Am7              D7
   ^   ** ^         ^   ** ^          ^   ** ^         ^^  ^   ^ ^^     
e|-3--333-3-333333--2--222-2-222222-|-3--333-3-333333--2222222233333333|
B|-1--111-1-111111--1--111-1-111111-|-1--111-1-111111--1111111111111111|
G|-2--222-2-222222--2--222-2-222222-|-2--222-2-222222--2222222222222222|
D|-2--222-2-222222--0--000-0-000000-|-2--222-2-222222--0000000000000000|
A|-0--000-0-000000------------------|-0--000-0-000000------------------|
E|----------------------------------|----------------------------------|
* = slight palm mutes
^ = down stroke accents with pick

=========== Rythem 4

   Am7              D7                Am7              D7
e|-3----------------2------3-3------|-3----------------2----------3-0--|
B|-1------3-3-3-1---1----1-----3-1--|-1------3-3-3-1---1------1-3------|
G|-2----2-----------2---------------|-2----2-----------2---------------|
D|-2----------------0---------------|-2----------------0---------------|
A|-0--------------------------------|-0--------------------------------|
E|----------------------------------|----------------------------------|
   Let Ring...      Let Ring....      Let Ring...      Let Ring...

   Am7              D7                Am7              D7
e|-3----------------2------3-3------|-3----------------2------3-3-3-2--|
B|-1------3-3-3-1---1----1-----3-1--|-1------3-3-3-1---1------3-3-3-1--|
G|-2----2-----------2---------------|-2----2-----------2---------------|
D|-2----------------0---------------|-2----------------0---------------|
A|-0--------------------------------|-0--------------------------------|
E|----------------------------------|----------------------------------|
   Let Ring...      Let Ring....      Let Ring...      Let Ring...

=========== Rythem 5

   Am7              D7                Am7              D7
e|-3---------3--3---2--------2--2-2-|-3---------3--3---2--------2--2-2-|
B|-1---------1--1---1--------1--1-1-|-1---------1--1---1--------1--1-1-|
G|-2---------2--2---2--------2--2-2-|-2---------2--2---2--------2--2-2-|
D|-2---------2--2---0--------0--0-0-|-2---------2--2---0--------0--0-0-|
A|-0---------0--0-------------------|-0---------0--0-------------------|
E|----------------------------------|----------------------------------|

   Am7              D7                Am7
e|-3---------3--3---2--------2--2-2-|-3--------------------------------|
B|-1---------1--1---1--------1--1-1-|-1--------------------------------|
G|-2---------2--2---2--------2--2-2-|-2--------------------------------|
D|-2---------2--2---0--------0--0-0-|-2--------------------------------|
A|-0---------0--0-------------------|-0--------------------------------|
E|----------------------------------|----------------------------------|

Performance note: hold Am7 'grungy' for 8 beats.

=========== Outro

   D7omit3
e|-0--------------------------------|(0)-------------------------------|
B|-1--------------------------------|(1)-------------------------------|
G|-2--------------------------------|(2)-------------------------------|
D|-0--------------------------------|(0)-------------------------------|
A|----------------------------------|----------------------------------|
E|----------------------------------|----------------------------------|
   ^ Arpeggio from low to high (D G B e) and let ring.

Performance Note:  Clean Tone, hold until inaudible.

| /  slide up
| \  slide down
| *  palm mute
| ^  accent note
| h  hammer-on
| p  pull-off
| ~  vibrato
| +  harmonic
| x  Mute note
===============================================================================
Добавлено: 17.01.2014
Другие материалы по этой песне:
  • Аккорды и текст

Страница создана 17.01.2014
http://primanota.ru/misc-unsigned-bands/everyday-shooter-lush-look-killer-level-chords.htm
Привет, Гость.
Предлагаем пройти революционный курс по гитаре.
Подарок от PrimaNota.Ru, забирай!