PrimaNota.ru - самый крупный в мире бесплатный архив песенных текстов, аккордов, табулатур и нот


Misc Unsigned Bands - Evans - Drink And Drive - таба

Регистрация Запомнить меня
Войти через:  Facebook Google Twitter Vk Yandex Mail.ru

Misc Unsigned Bands - Evans - Drink And Drive - таба

Печатать
Просмотров: 41
www.snuvvixnet.net

(This is our first album but we have more songs than the shown.
I hope you guys put us up on the "real" ultimate-guitar.com and not as unsigned bands.  Thanks! / Monta)

Album: Drink and Drive
Group: Evans
-----------------------

Live on the edge
Intro..

|-----------------------------------------------------------------8-|
|-------------------------------------------------------------------|
|-----------------------------------------------------------8-------|
|----12-------7-------10----------------------------------8---p10---|   x2
|-10----<>--5---<>--8----<>----10-------6-------8-------8-----------|
|----------------------------8----<>--4---<>--6---<>--8-----------8-|


Verse..

|-------xx-------x-------xx---------------xx-------x-------xx-------|
|-------xx-------x-------xx---------------xx-------x-------xx-------|
|-------xx-------x-7-777-xx--77777--------xx-------x-------xx-------|
|-9-999-xx-99999-x-7-777-xx--77777--7-777-xx-77777-x-5-555-xx-55555-|
|-9-999-xx-99999-x-5-555-xx--55555--7-777-xx-77777-x-5-555-xx-55555-|
|-7-777-xx-77777-x-------xx---------5-555-xx-55555-x-3-333-xx-33333-|


Chorus..

|--------------------------------------------------------------------|
|--------------------------------------------------------------------|
|---------------------------9-99-99-99-999---------------------------|
|-12-1212-1212-1212-121212--9-99-99-99-999--10-1010-1010-1010-101010-|
|-12-1212-1212-1212-121212--7-77-77-77-777--10-1010-1010-1010-101010-|
|-10-1010-1010-1010-101010-------------------8--8-8--8-8--8-8--8-8-8-|


Verse 1

My life is near crashing, I live on the edge.
I feel the fear above me, I can't run away.
These things can happen, to everyone i swear.
Pray to god, that it doesent come your way.
A sickness thought, about overdose, just to
think of it, it makes me wanna go to hell.

Chorus

To live on the edge, isn't a break.
For a better life, for a better time,
for a better world.

To live on the edge, isn't a break.
The girls think you're nuts and your
friends think, you're a pain in the ass.

Verse 2

I can't get out now, it's to late.
I might as well, take a joint by myself.
My life's getting colder.
Everything is just a mess, thinking to myself;
What will happen to me next.

Chorus

To live on the edge, isn't a break.
For a better life, for a better time,
for a better world.

To live on the edge, isn't a break.
To hear the fear within, it's just to
much for me, i'm all alone now.

Verse 3

Now i'm laying there, at the hospital.
Trying to fight for my life, surrounded
by sweet eighteens. I see them, but that's
precice, my eyes is shut, but i can still
see a glimt.

Chorus

To live on the edge, isn't a break.
For a better life, for a better time,
for a better world. Everything is just
a mess, thinking to myself; Would i die
or would i cry...

Chorus (x2)

Outro..

|------------------------------------|
|-------5----------------------------|
|---7-----7-------5---3h5-5bp3-3/5\3-|
|-----7-----7/------5----------5/7\5-|
|-5---------5/--3--------------------|
|------------------------------------|


Means

<>      Harmonic Tones
h       Hammer on
p       Push
b       Bend
x       Mute
/       Slide up
\       Slide down
^       Vibrato
**      Tremolo
-------------------------------------------

Roadtrippin
Intro..

|------------------------|
|------------------------|
|------------------------|
|-7777-7h9p7-9/11-11-----|   x4
|-9999-------9/11-11-9-7-|
|------------------------|

|----------------------|
|----------------------|
|----------------------|
|-7777-7h9p7-666-7-9-7-|   x4
|-9999-------666-7-9-7-|
|----------------------|

|-------------------------------|
|-------------------------------|
|-------------------------------|
|-999-111111-777-999-7777777777-|
|-000-000000-000-000-9999999999-|
|-------------------------------|

Verse..
        
|-------------------------------|
|-------------------------------|
|-------------------------------|
|-999-111111-777-999-7777777777-|
|-000-000000-000-000-9999999999-|
|-------------------------------|
    
Chorus..

|-------------------------------|
|-------------------------------|
|-999-111111-777-999-7777777777-|
|-000-000000-000-000-9999999999-|
|-------------------------------|
|-------------------------------|

Verse 1

Feel like takin the road to California beach. 
Chicks and alcohol is up in the air.
a couple of smokes and routbeer 
near, near in my atmosphere.

Verse 2

The sunshine it hotter then ever today.
Cause today is the day.
The day we won't forget. 
Never ever forget.

Bridge

The first day of our first roadtrip.
The first day of our new life.

Chorus

Roadtrippin, makes you forget
Roadtrippin, makes you start on something new
Roadtrippin, makes you enjoy your life
We wanna share our happiness with you.

Verse 3

When our roadtrip starts
Everything is packed and perfect
We wanna feel, we wanna smell
We wanna be were everything is happen

Bridge

Now the revolution is here
We will wake up from all boring things
Now it's just we, the time and the long long road

Chorus

Roadtrippin, makes you forget
Roadtrippin, makes you start on something new
Roadtrippin, makes you enjoy your life
We wanna share our happiness with you.

Chorus (x3)


Outro..

|------------------------|
|------------------------|
|------------------------|
|-7777-7h9p7-9/11-11-----|   x2
|-9999-------9/11-11-9-7-|
|------------------------|

|----------------------|
|----------------------|
|----------------------|
|-7777-7h9p7-666-7-9-7-|   x2
|-9999-------666-7-9-7-|
|----------------------|
------------------------------

Midnight Hour
Verse..

Am - 5-7-7-5-5-5
C  - 8-10-10-8-8-8
?  - 7-7-9-9-8-7

Chorus..

12-8-10-12
12-8-10-12
10-6-8--10

Verse 1

In the midnight hour
i want you here
In the midnight hour
i'll kiss your lips
before i kiss your
tits. oh ho ho,
i'll take a drink and
go straight into drunk

Verse 2

You step into the cabin
of mine, you get surprised
and i ask you why. Gives
me no answer so i get a
little bad. You suddenly
give me credit for a thing
still i don't know what but
it sure looks bright.

Verse 3
Draging your fingernails down
my body while you scream out
loud *raaaooorr*.
I can see in your eyes that you
look for more. I take that moment
and makes it real with a storm.

and then..

Chorus

Wooops into bed, all our clothes
is of but it doesn't move on and
why, are we that shy? Right on time
in the Midnight Hour. Just in time
for the Midnight Hour.

Verse 4

This can't be happening, this can't
be right. It's written in my life but
now it's out of sight. I get real mad
i get real sad, twisting and thinking
on and of, oh bad. Now my lifes changed,
it comes and goes.

and then..

Chorus

Wooops into bed, all our clothes
is of but it doesn't move on and
why, are we that shy? Right on time
in the Midnight Hour. Just in time
for the Midnight Hour.

Chorus (x2)

Outro..

Am - 5-7-7-5-5-5
C  - 8-10-10-8-8-8
?  - 7-7-9-9-8-7
-------------------

The friend
Intro..

  Guitar 1
|-11--11--11--11h12-14-12-11----|
|---12--12--12--------------12-9|
|-------------------------------|
|-------------------------------|
|-------------------------------|
|-------------------------------|

..Continue to play first and second part until the intro stops


  Guitar 2
|-11--11--11--11h12-14-14-14-14--------|
|---12--12--12-----------------13-12-11|
|--------------------------------------|
|--------------------------------------|
|--------------------------------------|
|--------------------------------------|

..Then
 
 Guitar 1
|----------xx-----------------------------------------------xx-|
|----------xx-----------------------------------------------xx-|
|----------xx-11-12-12b-p11--11-12-12b-p11--11-12-12b-p11---xx-|
|-13131313-xx--------------13-------------13-------------13-xx-|
|-11111111-xx-----------------------------------------------xx-|
|----------xx-----------------------------------------------xx-|

|------------------------x---------------|
|------------------------x---------------|
|-1616161616161616161616-x-161616-16/1818|
|-1414141414141414141414-x-141414-14/1616|
|------------------------x---------------|
|------------------------x---------------|

Play The intro 3 Times!

Verse..

|----------xx-----------------------------------------------xx-|
|----------xx-----------------------------------------------xx-|
|----------xx-11-12-12b-p11--11-12-12b-p11--11-12-12b-p11---xx-|
|-13131313-xx--------------13-------------13-------------13-xx-|
|-11111111-xx-----------------------------------------------xx-|
|----------xx-----------------------------------------------xx-|

|------------------------x---------------|
|------------------------x---------------|
|-1616161616161616161616-x-161616-16/1818|
|-1414141414141414141414-x-141414-14/1616|
|------------------------x---------------|
|------------------------x---------------|

Chorus..

|------------------------------55-xx-5555-66-xx-6-66-6-x-0-33-xx-3-33333-|
|------------------------------55-xx-5555-66-xx-6-66-6-x-0-55-xx-5-55555-|
|-1212-xx-12b-1212-x-12b12b12b-77-xx-7777-66-xx-6-66-6-x-0-55-xx-5-55555-|
|-1010-xx-10--1010-x-101010----55-xx-5555-88-xx-8-88-8-x-0-33-xx-3-33333-|
|-1010-xx-10--1010-x-101010----55-xx-5555-66-xx-6-66-6-x-0-33-xx-3-33333-|
|------------------------------55-xx-5555-66-xx-6-66-6-x-0-33-xx-3-33333-|


Verse 1

They say memories ar golden; 
well maybe thats true 
I never wanted memories, 
I only wanted you. 

Verse 2

A million times I needed you, 
A million times I cried, 
If love alone could saved you, 
you never would have died. 

Chorus

You
Добавлено: 09.08.2013
Другие материалы по этой песне:
  • Аккорды и текст

Страница создана 09.08.2013
http://primanota.ru/misc-unsigned-bands/evans-drink-and-drive-chords.htm
Привет, Гость.
Предлагаем пройти революционный курс по гитаре.
Подарок от PrimaNota.Ru, забирай!