PrimaNota.ru - самый крупный в мире бесплатный архив песенных текстов, аккордов, табулатур и нот


Misc Unsigned Bands - Entities - Desolate Tranquility - таба, видео

Регистрация Запомнить меня
Войти через:  Facebook Google Twitter Vk Yandex Mail.ru

Misc Unsigned Bands - Entities - Desolate Tranquility - таба, видео

Печатать
Просмотров: 46
This song is played on a six string in Drop G.


Rhythm Guitar
(0:00-0:52)
|-------------------------------------------------------0h7h10----|
|--------------------------------------------------0h7h8----------|
|---------------------------------------------0h7h9---------------|
|---------------------0h5-----------------0h5---------------------|
|------------------------7-------------------7--------------------|
|--2222-2222-2-22-2-22------2222-2-22-2-22------------------------|


|-----------------------------------------------------------|
|------------------------------------------------0h6h8------|
|---------------------------------------------7-------------|
|---------------------0h5-----------------0h5---5-----------|
|------------------------6-------------------6--------------|
|-1111-1111-1-11-1-11------1111-1-11-1-11-------------------|


|-------------------------------------------------------------|
|------------------------------------------------0h6h8-4------|
|---------------------------------------------7-------7-7-----|
|---------------------0h5-----------------0h5---5-------------|
|------------------------6-------------------6----------------|
|-1111-1111-1-11-1-11------1111-1-11-1-11---------------------|


(0:53-1:23)
|---------------------------------------------------------------|
|--------------------------------------0------------------------|
|--0-----------0---------------0-------5---0-----------0~-------|
|--4---9---7---4---9---7---8---4---9---7---4---9---8---4~-------|
|--2---7---3---2---7---3---6---2---7---3---2---7---6---2~-------|
|--2---7---3---2---7---3---6---2---7---3---2---7---6---2~-------|



clean section
(1:24-1:39)
|------0----0---0----0--------------------|
|-----7----7---4----5-------------10------|
|----9----8---1----7-------------7--------|
|---6----6---2----5------9--5--10---------|   x2
|--7----7--------3------7--5--8-----------|
|----------------------7--5--8------------|

Lead 1
(1:40-2:04)
|--------0---------2---0~------|
|------4---------4-------------|
|----1---------1---------------|
|--2---------2-----------------|
|------------------------------|
|------------------------------|

Lead 2
|------------------------------------|
|--13-----------17~---13-------------|
|-----16-----------------16----------|
|--------16-----------------16-------|
|-----------19-----------------19----|
|------------------------------------|



You can figure out the pattern.
(2:05-2:38)
|-----------------------------------------------------|
|-----------------------------------------------------|
|-----------------------------------------------------|
|-----------------------------------------------------|
|-----------------------------------------------------|
|--222-2-22-222-222-2-22-2222-222-2-22-2222-222-2-22--|



Ending breakdown
(2:39-3:39)
|-----------------------------------------------------------|
|--------------------------5------------------------5-------|
|---------8-------------8-8-8-------8------------8-8-8------|
|----------6-------------6-----------6------------6---------|
|--------7-------------7-----------7------------7-----------|
|--222222----222-2-2-22------222222---222-2-2-22------------|


|--------------------------------------------------------------------------|
|-------------------------------9----------------------------------9-------|
|----------12-------------12--12-12---------12---------------12--12-12-----|
|------------10-------------10----------------10---------------10----------|
|--------11-------------11----------------11---------------11--------------|
|--666666-----666-6-6-66------------666666-------666-6-6-66----------------|



|---------------------------------------------------------|
|--------------------------5------------------------------|
|----------8-------------8-8-8--------8-------------------|
|-----------6-------------6------------6------------------|
|---------7-------------7------------7--------------------|
|--222-2-2----222-2-2-22------222-2-2-----222-2-2-22------|



|---------------------------------------------------------------------------|
|-------------------------------9----------------------------------9--------|
|----------12-------------12--12-12---------12---------------12--12-12------|
|------------10-------------10----------------10---------------10-----------|
|---------11-------------11----------------11---------------11--------------|
|--666-6-6-----666-6-6-66------------666666-------666-6-6-66----------------|
Добавлено: 24.07.2013
Другие материалы по этой песне:
  • Аккорды и текст

Страница создана 24.07.2013
http://primanota.ru/misc-unsigned-bands/entities-desolate-tranquility-chords.htm
Привет, Гость.
Предлагаем пройти революционный курс по гитаре.
Подарок от PrimaNota.Ru, забирай!