PrimaNota.ru - самый крупный в мире бесплатный архив песенных текстов, аккордов, табулатур и нот


Misc Unsigned Bands - Ellery Daines - Too Much - таба

Регистрация Запомнить меня
Войти через:  Facebook Google Twitter Vk Yandex Mail.ru

Misc Unsigned Bands - Ellery Daines - Too Much - таба

Печатать
Просмотров: 53
Too Much – Ellery Daines: Guitar Tab & Chords

The lyrics in brackets are for where the chord progression repeats later in the song

Intro/recurring riff:
e|-----------------------------------------------------------------------|
B|-----------------------------------------------------------------------|
G|-----------------------------------------------------------------------|
D|---5---5/7---7/8---8---8/10---10/12---5---5/7---7/8---8---8-7---5------|
A|-----5-----5---------6------8-----------5-----5---------6-----8---5----|
E|-3---------------6------------------3---------------6------------------|

Verse:

Gm F Gm F Gm
            Today I bought a bunch of shit cos I could
(riff) Gm
         I didn't need it but it made me feel good
(riff) F                             Gm
        Me and my/ money have so much fun
       (She knows that/ she can't live like this for long)
F Gm Bb F                               Gm  Dm
         We pretend like/ we don't need anyone
        (She made plans/ but somewhere they all went wrong)

Pre Chorus:

Csus2                              Eb                              Csus2
     I sold my soul and I lost my mind/ For everything that I could buy
                     Eb    D7
     So what do I do now, whoa

Chorus:

Gm                           Bb                F
  Too much of this freaks me out/ it wears me down
 (Been this way such a long time/ it bleeds me dry)
               Eb   D7#9
  til I don't know, whoa
  (where can I go, whoa)

(riff)

Gm
   She lives a life a little lonelier every day
G5  D5  Bb5 Eb5 F5

G5
  Wake up and eat go to work sleep get paid
G5  D5  Bb5 Eb5 F5

G5
  She's going nowhere but she can't find a better way
(riff)

G5
  So she consoles herself with words like someday
(riff)

 She knows that.....(see verse 1)

D
 She said

CHORUS

Breakdown:

e|---------3---------------3---------------3---------------3-----|
B|-----3-----3---------3-----3---------3-----3---------3-----3---|
G|---3---3-----3-----2---2-----2-----3---3-----3-----0---0-----0-|
D|-5-------------5-3-------------3-1-------------1---------------|
A|-------------------------------------------------3-------------|
E|---------------------------------------------------------------|

(cont'd):
e|------------------------------------------------------------------|
B|-----------3-------4-------3---------------7-----8-------10-------|
G|-------3-----3-------3-------3---------7-----7-----7--------7-----|
D|-----3---------3-------3-------3-----7---------7-----7--------7-0-|
A|-3-1-----1-------1-------1-------1-5-----5-------5-----5----------|
E|------------------------------------------------------------------|



e|---------3---------------3---------------3---------------3-----|
B|-----3-----3---------3-----3---------3-----3---------3-----3---|
G|---3---3-----3-----2---2-----2-----3---3-----3-----0---0-----0-|
D|-5-------------5-3-------------3-1-------------1---------------|
A|-------------------------------------------------3-------------|
E|---------------------------------------------------------------|
Too much blood and sweat and tears/ goes on for days then months then years


e|---------------------------------------------------0-------3-------|
B|-----------3-------4-------3---------------2---------2-------2-----|
G|-------3-----3-------3-------3---------0-----0---------0-------0---|
D|-----3---------3-------3-------3-----2---------2---------2-------2-|
A|-3-1-----1-------1-------1-------1-0-----0-------0-----------------|
E|-------------------------------------------------------------------|
She wonders if she should hang on

e|---------------------------------------------------------------|
B|---------6---------------5---------------3---------------3-----|
G|-----5-----5---------2-----2---------2-----2---------2-----2---|
D|---7---7-----7-----2---2-----2-----3---3-----3-----0---0-----0-|
A|-5-------------5-3-------------3-1-------------1---------------|
E|-------------------------------------------------3-------------|
Too much petty wasted time/ pretending this is the good life

e|--------------------------------------------------------------------4---|
B|-----------1----------------1-----------------0-----------------5-----5-|
G|-------------2----------------2-----------1-----1-----------7-----7-----|
D|-------3-------3-------3--------3-------0---0-----0-------6---6---------|
A|-----3---3-------3---3---3--------3-----------------2---7---------------|
E|-3-1---------------1----------------1-0---------------------------------|
If it was up to him then he'd be gone

     Am7                 G6
Deep down they know that it's too late

      Fmaj7            D
They give up more and more each day

          C        E7
But they say, they say

e|---------------4/5-5-|
B|-----------5-------5-|
G|-------7-----7-----5-|
D|-----6---6---------7-|
A|---7---------------0-|
E|---------------------|

                            C                G
Too much of this freaks me out/ it wears me down

             F     E7
Til I don't know, whoa

Am                         C
  Someday I'll get out of here

           G
Forget my fear

               F E7#9
Someday I'll go, someday I will go

Am C G F E7

Am C G F G

(riff)

e|--------------------------------------------------------|
B|---------------8---6------------------------------------|
G|----------------------7p5/3---3-------------------------|
D|---5---5/7---7-------------h5--h5p3---------------------|
A|-----5-----5-----------------------h5-4-3---5-----------|
E|-3----------------------------------------6-3-----------|
Добавлено: 18.11.2013
Другие материалы по этой песне:
  • Аккорды и текст

Страница создана 18.11.2013
http://primanota.ru/misc-unsigned-bands/ellery-daines-too-much-chords.htm
Привет, Гость.
Предлагаем пройти революционный курс по гитаре.
Подарок от PrimaNota.Ru, забирай!