PrimaNota.ru - самый крупный в мире бесплатный архив песенных текстов, аккордов, табулатур и нот


Misc Unsigned Bands - Eddie Dimas - El Mosquito - таба

Регистрация Запомнить меня
Войти через:  Facebook Google Twitter Vk Yandex Mail.ru

Misc Unsigned Bands - Eddie Dimas - El Mosquito - таба

Печатать
Просмотров: 63
Title: El Mosquito
SubTitle: Tab by Jay Juarez
Artist: Eddie Dimas
Album: El Mosquito
Copyright: 2013
Tempo = 120
Lead Guitar




E |----------------------------||---------------------------|----|
B |----------------------------||----5-----5-----5-----5----|----|
G |----------------------------||o---6-----6-----6-----6----|----|
D |--7-----4-----------4--6----||o7-----------7-------------|----|
A |--------------7--7----------||-------7-----------7-------|----|
E |----------------------------||---------------------------|----|


-----9-----9--9--------7--7-----5-----5-------------|
--10----10----10----9-----9-----7-----7-------------|
----------------------------------------------------|
----------------------------------------------------|
----------------------------------------------------|
----------------------------------------------------|


-----5-----5--5--------4--4-----3-----2-------------|
--7-----7-----7-----5-----5-----4-----3-------------|
----------------------------------------------------|
----------------------------------------------------|
----------------------------------------------------|
----------------------------------------------------|


-----7-----7--7--------5--5-----4-----4-------------|
--9-----9-----9-----7-----7-----5-----5-------------|
----------------------------------------------------|
----------------------------------------------------|
----------------------------------------------------|
----------------------------------------------------|


-----4-----4--4-----4-----5-----7-----9-------------|
--5-----5-----5-----5-----7-----9-----10------------|
----------------------------------------------------|
----------------------------------------------------|
----------------------------------------------------|
----------------------------------------------------|


-----9-----9--9--------7--7-----5-----5-------------|
--10----10----10----9-----9-----7-----7-------------|
----------------------------------------------------|
----------------------------------------------------|
----------------------------------------------------|
----------------------------------------------------|


-----5-----5--5--------4--4-----3-----2-------------|
--7-----7-----7-----5-----5-----4-----3-------------|
----------------------------------------------------|
----------------------------------------------------|
----------------------------------------------------|
----------------------------------------------------|


-----7-----7--7--------5--5-----4-----4-------------|
--9-----9-----9-----7-----7-----5-----5-------------|
----------------------------------------------------|
----------------------------------------------------|
----------------------------------------------------|
----------------------------------------------------|


-----4-----4--4-----4-----5-----7-------------------|
--5-----5-----5-----5-----7-----9-----10------------|
----------------------------------------------------|
----------------------------------------------------|
----------------------------------------------------|
----------------------------------------------------|


----------------------------|
--7-----5-----------5-------|
-----------6--------6-------|
--------------7--7--7-------|
----------------------------|
----------------------------|


----------------------------------------------------|---------||
--------------5-----5-----5--5--5--5--5-------------|---------||
--------------6-----6-----6--6--6--6--6-------------|--------o||
--------------7-----7-----7--7--7--7--7-------------|--4--6--o||
--------------------------------------------7-------|---------||
----------------------------------------------------|---------||


----------------------------------------------------|
----------------------------------------------------|
----------------------------------------------------|
--4--------------------------------4----------------|
--------------7-----------7-----7--------7--4-------|
----------------------------------------------------|


----------------------------------------------------|
----------------------------------------------------|
----------------------------------------------------|
----------------------------------------------------|
-----------4-----4--4-----7-----7--7-----6--5-------|
--5-----5-------------------------------------------|


----------------------------------------------------|
--------------------------------5-----------5-------|
--------------------------------6-----------6-------|
-----------4--------4-----7s----7-----------7-------|
--4-----7--------7--------------------7-------------|
----------------------------------------------------|


----------------------------------------------------|
--------3--3--4--4--5--5--------5-----------5-------|
--------4--4--5--5--6--6--------6-----------6-------|
--7-----5--5--6--6--7--7--7-----7-----------7-------|
--------------------------------------7-------------|
----------------------------------------------------|


----------------------------|----------------------------|
-----5-----5-----5-----5----|-----5-----5--7--5--4s-5----|
-----6-----6-----6-----6----|-----6----------------------|
--7--7-----7--7--7-----7----|-----7----------------------|
--------7-----------7-------|--7-------------------------|
----------------------------|----------------------------|


----------------------------------------------------|
--5--------5--------5-----7-----5-----4s----5-------|
--6--------6----------------------------------------|
--7--------7----------------------------------------|
----------------------------------------------------|
----------------------------------------------------|


----------------------------------------------------|
--------------------5-----7-----5-----4s----5-------|
--7--------7----------------------------------------|
--6--------6----------------------------------------|
--7--------7----------------------------------------|
----------------------------------------------------|


----------------------------------------------------|
--------------------5-----7-----5-----4s----5-------|
--7--------7----------------------------------------|
--6--------6----------------------------------------|
--7--------7----------------------------------------|
----------------------------------------------------|


----------------------------------------------------|
--5--------5--------5-----7-----5-----4s----5-------|
--6--------6----------------------------------------|
--7--------7----------------------------------------|
----------------------------------------------------|
----------------------------------------------------|


----------------------------------------------------|
--5--------5--------5-----7-----5-----4s----5-------|
--6--------6----------------------------------------|
--7--------7----------------------------------------|
----------------------------------------------------|
----------------------------------------------------|


----------------------------------------------------|
--------------------5-----7-----5-----4s----5-------|
--7--------7----------------------------------------|
--6--------6----------------------------------------|
--7--------7----------------------------------------|
----------------------------------------------------|


----------------------------------------------------|
--------------------5-----7-----5-----4s----5-------|
--7--------7----------------------------------------|
--6--------6----------------------------------------|
--7--------7----------------------------------------|
----------------------------------------------------|


--5-----5--5----------------------------------------|
--------------7-----7--7--5-----5--5----------------|
--------------------------------------6-----6--6----|
----------------------------------------------------|
----------------------------------------------------|
----------------------------------------------------|


----------------------------------------------------|
----------------------------------------------------|
----------------------------------------------------|
--7-----7--7--4-----4--4--------------6-----6-------|
--------------------------7-----4-------------------|
----------------------------------------------------|


----------------------------|----|
-----5-----5-----5-----5----|----|
-----6-----6-----6-----6----|----|
--7--7-----7--7--7-----7----|----|
--------7-----------7-------|----|
----------------------------|----|


-----9-----9--9--------7--7-----5-----5-------------|
--10----10----10----9-----9-----7-----7-------------|
----------------------------------------------------|
----------------------------------------------------|
----------------------------------------------------|
----------------------------------------------------|


-----5-----5--5--------4--4-----3-----2-------------|
--7-----7-----7-----5-----5-----4-----3-------------|
----------------------------------------------------|
----------------------------------------------------|
----------------------------------------------------|
----------------------------------------------------|


-----7-----7--7--------5--5-----4-----4-------------|
--9-----9-----9-----7-----7-----5-----5-------------|
----------------------------------------------------|
----------------------------------------------------|
----------------------------------------------------|
----------------------------------------------------|


-----4-----4--4-----4-----5-----7-----9-------------|
--5-----5-----5-----5-----7-----9-----10------------|
----------------------------------------------------|
----------------------------------------------------|
----------------------------------------------------|
----------------------------------------------------|


-----9-----9--9--------7--7-----5-----5-------------|
--10----10----10----9-----9-----7-----7-------------|
----------------------------------------------------|
----------------------------------------------------|
----------------------------------------------------|
----------------------------------------------------|


-----5-----5--5--------4--4-----3-----2-------------|
--7-----7-----7-----5-----5-----4-----3-------------|
----------------------------------------------------|
----------------------------------------------------|
----------------------------------------------------|
----------------------------------------------------|


-----7-----7--7--------5--5-----4-----4-------------|
--9-----9-----9-----7-----7-----5-----5-------------|
----------------------------------------------------|
----------------------------------------------------|
----------------------------------------------------|
----------------------------------------------------|


-----4-----4--4-----4-----5-----7-------------------|
--5-----5-----5-----5-----7-----9-----10------------|
----------------------------------------------------|
----------------------------------------------------|
----------------------------------------------------|
----------------------------------------------------|


----------------------------|
--7-----5-----------5-------|
-----------6--------6-------|
--------------7--7--7-------|
----------------------------|
----------------------------|


----------------------------------------------------|----------------------|
--------------5-----5-----5--5--5--5--5-------------|-----------5-----5----|
--------------6-----6-----6--6--6--6--6-------------|-----------6-----6----|
--------------7-----7-----7--7--7--7--7-------------|--4--6--7--7-----7----|
--------------------------------------------7-------|--------------7-------|
----------------------------------------------------|----------------------|


-----9.----9.-9.-------7.-7.----5.----5.------------|
--10.---10.---10.---9.----9.----7.----7.------------|
----------------------------------------------------|
----------------------------------------------------|
----------------------------------------------------|
----------------------------------------------------|


-----5.----5.-5.-------4.-4.----3.----2.------------|
--7.----7.----7.----5.----5.----4.----3.------------|
----------------------------------------------------|
----------------------------------------------------|
----------------------------------------------------|
----------------------------------------------------|


-----7.----7.-7.-------5.-5.----4.----4.------------|
--9.----9.----9.----7.----7.----5.----5.------------|
----------------------------------------------------|
----------------------------------------------------|
----------------------------------------------------|
----------------------------------------------------|


-----4.----4.-4.----4.----5.----7.----9-------------|
--5.----5.----5.----5.----7.----9.----10------------|
----------------------------------------------------|
----------------------------------------------------|
----------------------------------------------------|
----------------------------------------------------|


-----9.----9.-9.-------7.-7.----5.----5.------------|
--10.---10.---10.---9.----9.----7.----7.------------|
----------------------------------------------------|
----------------------------------------------------|
----------------------------------------------------|
----------------------------------------------------|


-----5.----5.-5.-------4.-4.----3.----2.------------|
--7.----7.----7.----5.----5.----4.----3.------------|
----------------------------------------------------|
----------------------------------------------------|
----------------------------------------------------|
----------------------------------------------------|


-----7.----7.-7.-------5.-5.----4.----4.------------|
--9.----9.----9.----7.----7.----5.----5.------------|
----------------------------------------------------|
----------------------------------------------------|
----------------------------------------------------|
----------------------------------------------------|


-----4.----4.-4.----4.----5.----7.------------------|----------------|
--5.----5.----5.----5.----7.----9.----10------------|--7--5----------|
----------------------------------------------------|--------6-------|
----------------------------------------------------|-----------7----|
----------------------------------------------------|----------------|
----------------------------------------------------|----------------|


----------------|----------------------------------------------------|
----------------|----------------------------------------------------|
----------------|----------------------------------------------------|
--4-------------|--------------------4--4--7--7--4--4----------------|
-----7--4-------|--------4--4--7--7--------------------7--7--4--4----|
-----------5----|--5--5----------------------------------------------|


----------------------------------------------------|
----------------------------------------------------|
----------------------------------------------------|
--------------------4--4--5--5--4--4----------------|
--------4--4--7--7--------------------7--7--4--4----|
--5--5----------------------------------------------|


----------------------------------------------------|----|----|-------||
--------5-----5-----------5--------5--------5-------|----|----|--5----||
--------6-----6-----------6--------6--------6-------|----|----|--6----||
--------7-----7-----------7--------7--------7-------|----|----|--7----||
--------7-----7-----------7--------7--------7-------|----|----|--7----||
--------5-----5-----------5--------5--------5-------|----|----|--5----||

Добавлено: 08.01.2014
Другие материалы по этой песне:

Страница создана 08.01.2014
http://primanota.ru/misc-unsigned-bands/eddie-dimas-el-mosquito-chords.htm
Привет, Гость.
Предлагаем пройти революционный курс по гитаре.
Подарок от PrimaNota.Ru, забирай!