PrimaNota.ru - самый крупный в мире бесплатный архив песенных текстов, аккордов, табулатур и нот


Misc Unsigned Bands - Ed2shred - Aftermath - таба

Регистрация Запомнить меня
Войти через:  Facebook Google Twitter Vk Yandex Mail.ru

Misc Unsigned Bands - Ed2shred - Aftermath - таба

Печатать
Просмотров: 45
Song: Aftermath
Artist: Edtoshred
Tuning: Half Step Down
Tabbed by drawnacrol
Cover Video: http://www.youtube.com/watch?v=i_VlpJoPZEY

|-19p15----------------------------15-17p14----------------------------14-|
|-------17----------------------17----------15----------------------15----|
|*---------16----------------16----------------14----------------14-------|
|*------------17----------17----------------------16----------16----------|
|----------------19p14h19----------------------------17p12h17-------------|
|-------------------------------------------------------------------------|


|-16/19p15----------------------------15h19/22p19----------------------------19h22-|
|----------17----------------------17-------------20----------------------20-------|
|-------------16----------------16-------------------19----------------19----------|
|----------------17----------17-------------------------22----------21-------------|
|-------------------19p14h19-------------------------------22p17h22----------------|
|----------------------------------------------------------------------------------|


|-15p12----------------------------12h15t20p15p12----------------|
|-------13----------------------13----------------13-------------|
|----------12----------------12----------------------12----------|
|-------------14----------14----------------------------14-------|
|----------------15p10h15----------------------------------------|
|----------------------------------------------------------------|


|-------------------12h15t22p15t22p15p12----------------|
|----------------13----------------------13-------------|
|-------------12----------------------------12----------|
|----------14----------------------------------14-------|
|-15p10h15----------------------------------------------|
|-------------------------------------------------------|


|-------------------12h15t20p15p12----------12h15t22---|
|----------------13----------------13----13------------|
|-------------12----------------------12--------------*|
|----------14-----------------------------------------*|
|-15p12h15---------------------------------------------|
|------------------------------------------------------|


Arpeggios in E tuning:
|-18p14----------------------------14-16p13----------------------------13-|
|-------16----------------------16----------14----------------------14----|
|*---------15----------------15----------------13----------------13-------|
|*------------16----------16----------------------15----------15----------|
|----------------18p13h18----------------------------16p11h16-------------|
|-------------------------------------------------------------------------|


|-16/18p14----------------------------14h18/21p18----------------------------18h21-|
|----------16----------------------16-------------19----------------------19-------|
|-------------15----------------15-------------------18----------------18----------|
|----------------16----------16-------------------------20----------20-------------|
|-------------------18p13h18-------------------------------21p16h21----------------|
|----------------------------------------------------------------------------------|


|-14p11---------------------------11h14t19p14p11----------------|
|-------12---------------------12----------------12-------------|
|----------11---------------11----------------------11----------|
|-------------13---------13----------------------------13-------|
|----------------14p9h14----------------------------------------|
|---------------------------------------------------------------|


|------------------11h14t21p14t21p14p11----------------|
|---------------12----------------------12-------------|
|------------11----------------------------11----------|
|---------13----------------------------------13-------|
|-14p9h14----------------------------------------------|
|------------------------------------------------------|


|-------------------11h14t19p14p11----------11h14t21---|
|----------------12----------------12----12------------|
|-------------11----------------------11--------------*|
|----------13-----------------------------------------*|
|-14p11h14---------------------------------------------|
|------------------------------------------------------|
Добавлено: 14.10.2013
Другие материалы по этой песне:
  • Аккорды и текст

Страница создана 14.10.2013
http://primanota.ru/misc-unsigned-bands/ed2shred-aftermath-chords.htm
Привет, Гость.
Предлагаем пройти революционный курс по гитаре.
Подарок от PrimaNota.Ru, забирай!