PrimaNota.ru - самый крупный в мире бесплатный архив песенных текстов, аккордов, табулатур и нот


Misc Unsigned Bands - Ebony Day - Gone - таба, видео

Регистрация Запомнить меня
Войти через:  Facebook Google Twitter Vk Yandex Mail.ru

Misc Unsigned Bands - Ebony Day - Gone - таба, видео

Печатать
Просмотров: 46
Standard Tuning
---------------
Capo on 5
Tabs relative to capo
---------------------

Gone, by Ebony Day 

e|--------------------------|-------------------------|---------------------------|
B|-1--0H1--3--0H3-----------|-1--1--3--0H3------------|-1--0H1--3--3--------------|
G|-2--2----4--4-------------|-2--2--4--4--------------|-2--2----4--4--------------|
D|-----------------------2--|---------------------2---|---------------------2-----|
A|-3--3----5--4----2-----2--|-3--3--5--5----2-----2---|-3--3----5--5--2-----2-----|
E|-----------------3--2-----|---------------3--2------|---------------3--2--------| 1-3
                                                   Walks through the door - | She runs in crying -

e|--------------------------|-------------------------|---------------------------|
B|-1--1----3-0H3------------|-1--1--3-----------------|-1--K-K-----3--------------|
G|-2--2----4-4--------------|-2--2--4-----------------|-2--N-N-----4--------------|
D|-----------------------2--|--------------------2----|----O-O--------------2-----|
A|-3--3----5-5-----2-----2--|-3--3--5------2-----2----|-3--C-C-----5--2-----2-----|
E|-----------------3--2-----|--------------3--2-------|----K-K--------3--2--------| 4-6
       Yesterday our baby -    | Today that baby -               | He said hi -

e|--------------------------|-------------------------|---------------------------|
B|-1--0H1--3--0H3-----------|-1--1--3--3--------------|-1--1--3-0H3---------------|
G|-2--2----4--4-------------|-2--2--4--4--------------|-2--2--4-4-----------------|
D|-----------------------2--|-------------------2--2--|--------------------2--2---|
A|-3--3----5--5----2-----2--|-3--3--5--5--2-----2--2--|-3--3--5-5----2-----2--0H2-|
E|-----------------3--2-----|-------------3--2--------|--------------3--2---------| 7-9
       When they were high -   |  He says we're not -    | But please don't run -

e|--------------------------|-------------------------|---------------------------|
B|-1--0H1--3--0H3-----------|-1--0H1--3--0H3----------|-1--0H1--3--3H3------------|
G|-2--2----4--4-------------|-2--2----4--4------------|-2--2----4--4--------------|
D|-----------------------2--|-----------------------2-|-----------------------2---|
A|-3--3----5--5----2-----2--|-3--3----5--5----2-----2-|-3--3----5--5----2-----2---|
E|-----------------3--2-----|-----------------3--2----|-----------------3--2------| 10-12
  I can't stand the thou-   | You can call me crazy - | 

e|--------------------------|-------------------------|---------------------------|
B|-1--1----3--3-------------|-1--1--3--0H3------------|-1--1----3--3--------------|
G|-2--2----4--4-------------|-2--2--4--4--------------|-2--2----4--4--------------|
D|-2--2----4--4---------2---|---------------------2---|----------------------2----|
A|-0--0----0--0---2-----2---|-3--3--5--5----2-----2---|-3--3----5--5---2-----2----|
E|----------------3--2------|---------------3--2------|----------------3--2-------| 13-15
  And they love you -             Whether you're far -          Wakes up at midnight -

e|--------------------------|-------------------------|---------------------------|
B|-1--1----3--3-------------|-1--1----3---------------|-1--1---3--3---------------|
G|-2--2----4--4-------------|-2--2----4---------------|-2--2---4--4---------------|
D|----------------------2---|---------------------2---|--------------------2--2---|
A|-3--3----5--5---2-----2---|-3--3----5-----2-----2---|-3--3---5--5--2-----2--0H2-|
E|----------------3--2------|---------------3--2------|--------------3--2---------| 16-18
  She says baby come insi -       You know, you know -          She says no babe, no -

e|--------------------------|-------------------------|---------------------------|
B|-1--1----3--3-------------|-1--1----3--3------------|-1--K-K--3-----------------|
G|-2--2----4--4-------------|-2--2----4--4------------|-2--N-N--4-----------------|
D|-2--2----4--4--------2----|-2--2----4--4--------2---|----O-O--------------2-----|
A|-0--0----0--0--2-----2----|-0--0----0--0--2-----2---|-3--C-C--5-----2-----2-----|
E|---------------3--2-------|---------------3--2------|----K-K--------3--2--------|19-21
  And they held you -             And they waited for -         To say "hi" .. "goodbye"-

e|--------------------------|-------------------------|---------------------------|
B|-1--0H1--3----------------|-1--1----3--3------------|-1--1----3--3--------------|
G|-2--2----4----------------|-2--2----4--4------------|-2--2----4--4--------------|
D|---------------------2----|-2--2----4--4--------2---|---------------------2-----|
A|-3--3----5-----2-----2----|-0--0----0--0--2-----2---|-3--3----5--5--2-----2-----|
E|---------------3--2-------|---------------3--2------|---------------3--2--------|22-24
   When they were high -          And they love you, and -      Whether you're far or -

e|------------------------|
B|-1-------3--------------|
G|-2-------4--------------|
D|------------------------|
A|-3-------5-----2--------|
E|---------------3--------| 25
  Whether you're far -
  
 *************************************************************************************
***************************************************************************************
 ************************************************************************************* 
  
  The lyrics to her song are:
  ---------------------------
Walks through the door rain is pouring, he's far from okay. (02)
she runs in crying, screaming, wishing that the pain would go away. (03)
yesterday a baby was born, today that baby is gone (04)
they said hi, goodbye, to the life that they once made (06)
when they where high off love and cheap champagne (07)

He says were not meant to be, were not written in the stars (08)
if we were we'd have a baby in this home to call ours 
but please don't run away from something that i didn't do (09)
cos we just said goodbye to someone that we never knew 
and i can't take the thought of loosing you too (10)
so please just take my hand and i swear we'll make it through. 
and you can call me crazy, maybe its for the best (11)
God took our kid today and maybe this is just a test.

And they love you, and they miss you (13)
but you'll always be theirs
whether your far or your near, they care. (14)

Wakes up at midnight snow is falling but he's sat in the street. (15)
she says baby come inside, you can hold me (16)
you know you know, i can feel his warmth (17)
she says no babe, no babe. he's gone. (18)

and they held you for the first time and the last (19)
when they waited for the 9 months that had passed (20)
to say hi, goodbye to the life that they once made. (21)
when they were high, off love and cheap champagne.(22)

and they love you (23)
and they miss you
but you'll always be theirs
whether your far or your near. they care (24)
whether your far, your near. they care. (25)

-------------------------------------------------------------------

I think it's pretty clear cut, but if you have any questions or anything, feel 
free to email at fatalxcreation@hotmail.com. (Don't ask)

Also, this is my second tab, ever (and much respect to you guys... this took me 
forever to tab out), please rate well if you think I did well.
Добавлено: 13.08.2013
Другие материалы по этой песне:
  • Аккорды и текст

Страница создана 13.08.2013
http://primanota.ru/misc-unsigned-bands/ebony-day-gone-chords.htm
Привет, Гость.
Предлагаем пройти революционный курс по гитаре.
Подарок от PrimaNota.Ru, забирай!