PrimaNota.ru - самый крупный в мире бесплатный архив песенных текстов, аккордов, табулатур и нот


Misc Unsigned Bands - E-z Rollers - Walk This Land - бас-таба

Регистрация Запомнить меня
Войти через:  Facebook Google Twitter Vk Yandex Mail.ru

Misc Unsigned Bands - E-z Rollers - Walk This Land - бас-таба

Печатать
Просмотров: 54
E-Z Rollers - Walk This Land

Intro:     2X
Main Riff: 7X
Fill 1:    1X
Main Riff: 3X
Fill 2:    1X
Main Riff: 3X
Fill 1:    1X
Main Riff: 18X ish or till end

*every "-" is a 16th so "5-" is
an 8th note on the 5th fret, ect.

Intro:

G|75--------------|75--------------|
D|--7-5-----------|--7-5-----------|
A|------8-5-------|------8-5-------|
E|----------------|----------------|

Main Riff:

G|--75------------|--75------------|
D|----75--5---5---|----75--6---5---|
A|5-----85------8-|5-----85------8-|
E|----------------|----------------|

Fill 1:

G|--75------------|----------------|
D|----75--5---5---|----------------|
A|5-----85------8-|5---------------|
E|----------------|----------------|

Fill 2:

G|--75------------|7---7-----------|
D|----75--5---5---|-----77-5-------|
A|5-----85------8-|----------8-5---|
E|----------------|----------------|

*I'm not sure if its in the right tunning but you can figure that out for yourself. If 
have any comments email me @ cookie_1989@hotmail.com
Добавлено: 07.10.2013
Другие материалы по этой песне:
  • Аккорды и текст

Страница создана 07.10.2013
http://primanota.ru/misc-unsigned-bands/e-z-rollers-walk-this-land-chords.htm
Привет, Гость.
Предлагаем пройти революционный курс по гитаре.
Подарок от PrimaNota.Ru, забирай!