PrimaNota.ru - самый крупный в мире бесплатный архив песенных текстов, аккордов, табулатур и нот


Misc Unsigned Bands - Dymytry - Z Mdi - таба

Регистрация Запомнить меня
Войти через:  Facebook Google Twitter Vk Yandex Mail.ru

Misc Unsigned Bands - Dymytry - Z Mdi - таба

Печатать
Просмотров: 53
Уроки эстрадного вокала в Санкт-Петербурге
-----------------------------------------------------------------------------
                          Dymytry - Z médií 
-----------------------------------------------------------------------------

Tabbed by: Metalrock4ever

Tuning: CGCFAD

Intro:
D|--------------------------------------------------------------|
A|--------------------------------------------------------------|
F|---5-----5-------5-----5--------7------7--------7-----7-----7-|
C|-----7-----7-------7-----7--------9------9--------7-----7-----|  x
G|-7-----7-----7-8-----8-----8-10-----10-----10-9-----9-----9---|
C|--------------------------------------------------------------|

Rhythm Guitar:
(Listen to music for rhythm)
D|---------------------------------------------------|
A|---------------------------------------------------|
F|---------------------------------------------------| 
C|-777--333--101010----------------------------------|  x2
G|-777--333--101010----------------------------------|
C|-777--333--101010-10101010-10h12-10h12-10h12-10h12-|

or...

D|------------------------------------|
A|------------------------------------|
F|------------------------------------|
C|-777-7-7-333-3-3-101010-1010-121212-|
G|-777-7-7-333-3-3-101010-1010-121212-|
C|-777-7-7-333-3-3-101010-1010-121212-|

Then...

D|------------------------------------|
A|------------------------------------|
F|------------------------------------|
C|-777-7-7-333-3-3-101010-1010-121212-|  x2
G|-777-7-7-333-3-3-101010-1010-121212-|
C|-777-7-7-333-3-3-101010-1010-121212-|

Solo Part:
D|-----------------------|
A|----6~-5~------8-------|
F|----------5~-5---5~-7~-|
C|-7~--------------------| x2
G|-----------------------|
C|-----------------------|


Verse:
(Listen to music for rhythm. You can also either play chords or just
play on one string)
D|----------------------------------------------|
A|----------------------------------------------|
F|----------------------------------------------|
C|-10-7-7h10-7-7-10-7-7-7h10-12-999-xxx-33-88-+-|
G|-10-7-7h10-7-7-10-7-7-7h10-12-999-xxx-33-88-+-| <- +: natural harmonic
C|-10-7-7h10-7-7-10-7-7-7h10-12-999-xxx-33-88-+-| 


Pre-Chorus:
D|------------------------------------|
A|------------------------------------|
F|------------------------------------|
C|-777-7-7-333-3-3-101010-1010-121212-|  x2
G|-777-7-7-333-3-3-101010-1010-121212-|
C|-777-7-7-333-3-3-101010-1010-121212-|

Solo Part:
D|-----------------------|
A|----6~-5~------8-------|
F|----------5~-5---5~-7~-|
C|-7~--------------------|  x2
G|-----------------------|
C|-----------------------|


Chorus:
D|-----------------------------|
A|-----------------------------|
F|-----------------------------|
C|-7777-3333-10101010-12121212-|  x4
G|-7777-3333-10101010-12121212-|
C|-7777-3333-10101010-12121212-|

Solo Part 1:
D|-----------------------|
A|----6~-5~------8-------|
F|----------5~-5---5~-7~-|
C|-7~--------------------|  x2
G|-----------------------|
C|-----------------------|

Solo Part 2:
D|--------------------------------------------------------------|
A|--------------------------------------------------------------|
F|---5-----5-------5-----5--------7------7--------7-----7-----7-|
C|-----7-----7-------7-----7--------9------9--------7-----7-----|  x2
G|-7-----7-----7-8-----8-----8-10-----10-----10-9-----9-----9---|
C|--------------------------------------------------------------|


Verse 2:
D|----------------------------------------------|
A|----------------------------------------------|
F|----------------------------------------------|
C|-10-7-7h10-7-7-10-7-7-7h10-12-999-xxx-33-88-+-|
G|-10-7-7h10-7-7-10-7-7-7h10-12-999-xxx-33-88-+-| <- +: natural harmonic
C|-10-7-7h10-7-7-10-7-7-7h10-12-999-xxx-33-88-+-| 


Pre-Chorus:
D|------------------------------------|
A|------------------------------------|
F|------------------------------------|
C|-777-7-7-333-3-3-101010-1010-121212-|  x2
G|-777-7-7-333-3-3-101010-1010-121212-|
C|-777-7-7-333-3-3-101010-1010-121212-|

Solo Part:
D|-----------------------|
A|----6~-5~------8-------|
F|----------5~-5---5~-7~-|
C|-7~--------------------|  x2
G|-----------------------|
C|-----------------------|


Chorus 2:
D|-----------------------------|
A|-----------------------------|
F|-----------------------------|
C|-7777-3333-10101010-12121212-|  x4
G|-7777-3333-10101010-12121212-|
C|-7777-3333-10101010-12121212-|

Solo Part 1:
D|-----------------------|
A|----6~-5~------8-------|
F|----------5~-5---5~-7~-|
C|-7~--------------------|  x4
G|-----------------------|
C|-----------------------|

Solo Part 2:
D|------------------------------------------------------------|
A|------------------------------------------------------------|
F|---5-----5-------5-----5--------7------7--------7-----7-----|
C|-----7-----7-------7-----7--------9------9--------7-----7---|  x4
G|-7-----7-----7-8-----8-----8-10-----10-----10-9-----9-----9-|
C|------------------------------------------------------------|


Bridge:
D|---------------------------------------------------|
A|---------------------------------------------------|
F|---------------------------------------------------| 
C|-777--333--101010----------------------------------|  x2
G|-777--333--101010----------------------------------|
C|-777--333--101010-10101010-10h12-10h12-10h12-10h12-|

or...

D|------------------------------------|
A|------------------------------------|
F|------------------------------------|
C|-777-7-7-333-3-3-101010-1010-121212-|   x2
G|-777-7-7-333-3-3-101010-1010-121212-|
C|-777-7-7-333-3-3-101010-1010-121212-| 

Solo Part:
D|--------------------------------------------------------------|
A|--------------------------------------------------------------|
F|---5-----5-------5-----5--------7------7--------7-----7-----7-|
C|-----7-----7-------7-----7--------9------9--------7-----7-----|  x3
G|-7-----7-----7-8-----8-----8-10-----10-----10-9-----9-----9---|
C|--------------------------------------------------------------|


Final Chorus:
D|---------------------|
A|---------------------|
F|-----------7777-9999-|
C|-9999-5555-7777-9999-|  x2
G|-9999-5555-5555-7777-|
C|-9999-5555-----------|

Solo Part 1:
D|----10------10-------12-------12---|
A|-7~----7-8~----8-10~----10-9~----9-|
F|-----------------------------------|
C|-----------------------------------|  x2
G|-----------------------------------|
C|-----------------------------------|

Solo Part 2:
D|--------------------------------------------------------------------|
A|--------------------------------------------------------------------|
F|---7-----7--------7------7---------9-------9---------9-----9------9-|
C|-----9-----9--------9------9---------11------11--------9-----9------|  x3
G|-9-----9-----9-10-----10-----10-12------12------12-11----11----11---|
C|--------------------------------------------------------------------|

Outro:
(I don't think the guitar plays here, but here it is anyway)
D|--------------------------------------------------------------|
A|--------------------------------------------------------------|
F|---5-----5-------5-----5--------7------7--------7-----7-----7-|
C|-----7-----7-------7-----7--------9------9--------7-----7-----|  x2
G|-7-----7-----7-8-----8-----8-10-----10-----10-9-----9-----9---|
C|--------------------------------------------------------------|

************************************

| /   slide up
| \   slide down
| h   hammer-on
| ~   vibrato
| +   harmonic
| x   Mute note

************************************

If you have any comments/corrections, please say in either the comments box or leave me 
a message.
Good luck and enjoy!
Добавлено: 04.06.2013
Другие материалы по этой песне:
  • Аккорды и текст

Страница создана 04.06.2013
http://primanota.ru/misc-unsigned-bands/dymytry-z-mdi-chords.htm
Привет, Гость.
Предлагаем пройти революционный курс по гитаре.
Подарок от PrimaNota.Ru, забирай!