PrimaNota.ru - самый крупный в мире бесплатный архив песенных текстов, аккордов, табулатур и нот


Misc Unsigned Bands - Dualshock - We Hate Paramore - таба

Регистрация Запомнить меня
Войти через:  Facebook Google Twitter Vk Yandex Mail.ru

Misc Unsigned Bands - Dualshock - We Hate Paramore - таба

Печатать
Просмотров: 50
INTRO G1 
Part 1 (x4)                   
D#|---------------------------|
A#|---------------------------|
F#|---------------------------|
C#|-999999999999-555555555555-|
G#|-999999999999-555555555555-|
C#|-999999999999-555555555555-|
Part 2 (x4)
D#|------------------|---------------|
A#|------------------|---------------|
F#|------------------|--------77-----|
C#|-9999-11-99-11-12-|-5555-7----5-7-|
G#|-9999-9--99-9--9--|-5555-5-55-7-7-|
C#|-9999-9--99-9--9--|-5555-5-55-5-5-|

G2 (repeat until verse)
D#|----------------------------------------|-----------------------------------------|
A#|----------------------------------------|-----------------------------------------|
F#|----------------------------------------|-----------------------------------------|
C#|-11-11-11-11-11-11-11-9-9-9-9-9-12-11-9-|-----------------------------------------|
G#|----------------------------------------|-12-12-12-12-12-12-9-9-9-9-10-10-10-10-9-|
C#|----------------------------------------|-----------------------------------------|
 G1  (x3)
D#|---------------|---------------------|
A#|---------------|---------------------|
F#|---------------|------7--------------|
C#|---------------|----8---8-----8----8-|
G#|-----3h5-------|-10---------8----7---|
C#|-0-0-----5-3-2-|---------------------|

G2 (x3)
D#|---------------------|---------------------------|
A#|---------------------|---------------------------|
F#|---------------------|---------------------------|
C#|--------------12-8-7-|-------8----8------8-----8-|
G#|-------10h12---------|-10-10---10----8-8---7-7---|
C#|-12-12---------------|---------------------------|

CHORUS  (x3) G1 
D#|----------------------------------------------------|
A#|----------------------------------------------------|
D#|-77777-1010101010------------1010101010-7777-5555-7-|
C#|-77777-1010101010-12-10------1010101010-7777-5555-7-|
G#|-55555-8-8-8-8-8--------12---8-8-8-8-8
Добавлено: 18.02.2014
Другие материалы по этой песне:
  • Аккорды и текст

Страница создана 18.02.2014
http://primanota.ru/misc-unsigned-bands/dualshock-we-hate-paramore-chords.htm
Привет, Гость.
Предлагаем пройти революционный курс по гитаре.
Подарок от PrimaNota.Ru, забирай!