PrimaNota.ru - самый крупный в мире бесплатный архив песенных текстов, аккордов, табулатур и нот


Misc Unsigned Bands - Dope Priest - Blues - таба

Регистрация Запомнить меня
Войти через:  Facebook Google Twitter Vk Yandex Mail.ru

Misc Unsigned Bands - Dope Priest - Blues - таба

Печатать
Просмотров: 64
Уроки эстрадного вокала в Санкт-Петербурге
Unknown artist, blues

e----0-----0-----0-----------0-----0-----0-----0-0-3p0----------------------|
B----0-----0-----1-----------0-----0-----1------------3p0-------------------|
G----0-----0-----0-----------0-----0-----0---------------2p0----------------|
D---------------------------------------------------------------------------|
A-------------0-----1-0---------------0-----2-------------------------------|
E-0-----3---------------3-0-----3------------------0------------------------|


e-----------------------0-----0---------------------------------------------|
B-----0-----------------0-----1-------------0-----0-----0-------------------|
G-2-3---3-2-0-2p0-------0-----0---------2-3---2-3---2-3---3-2-0-------------|
D-----------------2---------------------------------------------------------|
A-2------------------------0-----1-0----2-----------2-----------------------|
E-------------0------3---------------3--------------------------------------|


e----0-----0-----0-----0-0-3p0------------------------------0-----0---------|
B----0-----0-----1------------3p0---------0-----------------0-----1---------|
G----0-----0-----0---------------2p0--2-3---3-2-0-2p0-------0-----0---------|
D-----------------------------------------------------2---------------------|
A-------------0-----2-----------------2------------------------0-----1-0----|
E-0-----3------------------0----------------------0------3---------------3--|


e-----------------------------0-----0-----0-----0-0-3p0-0----3-5--3---------|
B-----0-----0-----0-----------0-----0-----1------------------3-5--3---------|
G-2-3---2-3---2-3---3-2-0-----0-----0-----0------------------0-0--0---------|
D------------------------------------------------------------2-4--2---------|
A-2-----------2------------------------0-----2------------------------------|
E--------------------------0-----3------------------0-----0---------0-------|


e-0--5-3p0----3-5--3---0----0-2-2-----2-----2---------------0-----0---------|
B-------------3-5--3------4-------4p0---4p0---4p0-----------0-----1---------|
G-------------3-5--3------------------------------2p0-------0-----0---------|
D-------------2-4--2----------------------------------2---------------------|
A----0-----0---------0----2------------------------------------0-----2------|
E--------------------------------------------------------3------------------|


e-0-0-3p0-0----3-5--3----0--5-3p0----3-5--3---0----0-2-2--------------------|
B--------------3-5--3----------------3-5--3------4-------4p0-----0----------|
G--------------0-0--0----------------3-5--3------------------2-3---3-2-0----|
D--------------2-4--2----------------2-4--2---------------------------------|
A---------------------------0-----0---------0----2--------------------------|
E-----0-----0---------0-----------------------------------------------------|


e----0-----0-----0-----------0-----0-----0-----------0-----0-----0----------|
B----0-----0-----1-----------0-----0-----1-----------0-----0-----1----------|
G----0-----0-----0-----------0-----0-----0-----------0-----0-----0----------|
D---------------------------------------------------------------------------|
A-------------0-----1-0---------------0-----1-0---------------0-----1-0-----|
E-0-----3---------------3-0-----3---------------3-0-----3---------------3-0-|



e-3--2----------------------------------------------------------------------|
B-3--2----------------------------------------------------------------------|
G-2--1----------------------------------------------------------------------|
D-3--2----------------------------------------------------------------------|
A---------------------------------------------------------------------------|
E---------------------------------------------------------------------------|

Добавлено: 14.08.2013
Другие материалы по этой песне:
  • Аккорды и текст

Страница создана 14.08.2013
http://primanota.ru/misc-unsigned-bands/dope-priest-blues-chords.htm
Привет, Гость.
Предлагаем пройти революционный курс по гитаре.
Подарок от PrimaNota.Ru, забирай!