PrimaNota.ru - самый крупный в мире бесплатный архив песенных текстов, аккордов, табулатур и нот


Misc Unsigned Bands - Dopapod - Braindead - таба

Регистрация Запомнить меня
Войти через:  Facebook Google Twitter Vk Yandex Mail.ru

Misc Unsigned Bands - Dopapod - Braindead - таба

Печатать
Просмотров: 98
-------------------------------------------------------------------------------
                             BRAINDEAD - dopapod
-------------------------------------------------------------------------------
This is what I got so far, will update asap!
Based off:
4/05/2014 Madison Theater Show 
Covington, KY

Intro/Main Riff                                                              
                                                              Ending Lick
e|----------------------------------------------------------|-----------------|
B|--------------------------------------------------------6-|---6-------------|
G|--------4-4h5p4--------4h5p4-----------4-4h5p4-------4/5--|-----5-4---------|
D|-----3---------5-3---3------5-------3----------5-3--3-----|---------6-5-3---|
A|-----3---------------3--------5-----3---------------------|-----------------|
E|-----1---------------1--------------1---------------------|-----------------|

Verse 2 chords w/ heavy tremolo 

e|---------------------------------------------------------------------------|
B|---------------------------------------------------------------------------|
G|--4-----10-----------------------------------------------------------------|
D|--5-----9------------------------------------------------------------------|
A|--2-----8------------------------------------------------------------------|
E|---------------------------------------------------------------------------|

Main Riff W/ Alternate Ending

e|----------------------------------------------------------|-----------------|
B|-----------------------------------------------------6----|-----------------|
G|----4-4h5p4----------4h5p4----------4-4h5p4-------4/5-----|------5-----4----|
D|-3----------5-3----3------5-------3---------5-3--3--------|----3---3-2------|
A|-3-----------------3-------5------3-----------------------|-----------------|
E|-1-----------------1--------------1-----------------------|-----------------|

Lick #1

e|---------------------------------------------------------------------------|
B|---------------------------------------------------------------------------|
G|---5-----4---4----------------5-----4---4--5-4-----------------------------|
D|-3---3-2---3----2-3-4-5-----3---3-2---3--------5-3-------------------------|
A|---------------------------------------------------------------------------|
E|---------------------------------------------------------------------------|

Chords Between Lick #1

Alternate Between Palm Muting and Strumming
e|---------------------------------------------------------------------------|
B|---------------------------------------------------------------------------|
G|-4--------------6----------------------------------------------------------|
D|-3---X-times----5-----X-times----------------------------------------------|
A|-2--------------4----------------------------------------------------------|
E|---------------------------------------------------------------------------|

Matched Notes After Lead Part

e|---------------------------------------------------------------------------|
B|---13----------------------------------------------------------------------|
G|------13-12-10-------------------------------------------------------------|
D|---------------------------------------------------------------------------|
A|---------------------------------------------------------------------------|
E|---------------------------------------------------------------------------|

Lick 2  5:14 in Madison Theater Version
e|------------------------------------------------------1--------------------|
B|-----------------0-1h3h4p3p-0-------------------1-3-4---4-3-1--------------|
G|-------3-2---2-3----------------------------3-2----------------------------|
D|-3-2-1-------------------------------3-2-1---------------------------------|
A|---------------------------------------------------------------------------|
E|---------------------------------------------------------------------------|

Ending Riff

e|---------------------------------------------------------------------------|
B|---------------------------------------------------------------------------|
G|----6-6---6-6---6-6---------4h6p4------------------------------------------|
D|----6-6---6-4---6-6-------6---------6--------------------------------------|
A|----4-4---4-4---4-4---4-7--------------------------------------------------|
E|---------------------------------------------------------------------------|

Here's the beginning to get ya started 
Use F# Harmonic Minor


e|---------------------------------------------------------------------------|
B|---------------6---7-9-7-6-------------------------------------------------|
G|---6h7p6-----7-------------6-7---6-4-6-------------------------------------|
D|-----------9---------------------------6-6-6-4-6-3--3-4-4-6-6-7-7-6--------|
A|---------------------------------------------------------------------------|
E|---------------------------------------------------------------------------|

************************************

| /   slide up
| \   slide down
| h   hammer-on
| p   pull-off
| ~   vibrato
| +   harmonic
| x   Mute note
| b   Bend
| pb  Pre-bend
| br  Bend release
| pbr Pre-bend release
| brb Bend release bend

************************************
Добавлено: 19.07.2015
Другие материалы по этой песне:
  • Аккорды и текст

Страница создана 19.07.2015
http://primanota.ru/misc-unsigned-bands/dopapod-braindead-chords.htm
Привет, Гость.
Предлагаем пройти революционный курс по гитаре.
Подарок от PrimaNota.Ru, забирай!