PrimaNota.ru - самый крупный в мире бесплатный архив песенных текстов, аккордов, табулатур и нот


Misc Unsigned Bands - Divide - Hayley - бас-таба

Регистрация Запомнить меня
Войти через:  Facebook Google Twitter Vk Yandex Mail.ru

Misc Unsigned Bands - Divide - Hayley - бас-таба

Печатать
Просмотров: 48
 INTRO / VERSE

G|----------------------------------------------|
D|----------------------------------------------|
A|------------------------5--5--5---------------|  (3x)
E|--2--2--2----3--3--3---------------5--5--5----|

G|------------------------------------------------------------------------|
D|------------------------------------------------------------------------|
A|------------------------5--5--5--5--5--5--5--5--------------------------|
E|--2--2--2----3--3--3----------------------------5--5--5--5--5--5--5--5--|

CHORUS

G|-----------------------------------------6--7--6--------|
D|--------5--------4--7-----------7-----------------7-----|
A|-----5--------5--------5-----4-----7-----------------7--|
E|--3--------3--------------5-----------5-----------------|

G|--------------------------------------------------------------|
D|--------5--------4--7-----------7-----------------------------|
A|-----5--------5--------5-----4-----7--------------------------|
E|--3--------3--------------5-----------5--5--5--5--5--5--5--5--|


G|-----------------------------------------------------------------|
D|-----------------------------------------------------------------|
A|-----------------5-5-5-5-5-5-5-5---------------------------------|
E|-3-3-3-3-3-3-3-3-----------------5-5-5-5-5-5-5-5-5-5-5-5-5-5-5-5-|
G|-----------------------------------------------------------------|
D|-----------------------------------------------------------------|
A|-----------------5-5-5-5-5-5-5-5---------------------------------|
E|-3-3-3-3-3-3-3-3-----------------5-5-5-5-5-5-5-5-5-5-5-5-5-5-5-5-|

G|-----
D|-----
A|-----
E|--3-- (LET NOTE RING)


REPEAT VERSE
REPEAT CHORUS

SOLO:

G|-----------------------------------------------------------|
D|-----------------------------------------------------------| (REPEAT AS
A|-----------5-----------------------------------------------|   MANY TIMES
E|-3-3-3-3-3---5---5-7-7-7-7-7-7-7-7-10-10-10-10-10-10-10-10-|    NECESSARY)

G|-------------------------------------------------------------------------|
D|-------------------------------------------------------------------------|
A|-------------5-5---------------------------------------------------------|
E|-3-3-3-3-3-3-----5-5-5-5-5-5-5-5-7-7-7-7-7-7-7-7-10-10-10-10-10-10-10-10-|

G|-------------------------------------------------------------------------|
D|-------------------------------------------------------------------------|
A|-------------5-5---------------------------------------------------------|
E|-3-3-3-3-3-3-----5-5-5-5-5-5-5-5-7-7-7-7-7-7-7-7-10-10-10-10-10----------|

G|------------------------|
D|------------------------|
A|--5--5------5--5--------|
E|------------------5--5--|

REPEAT CHORUS AS MANY TIMES NECESSARY


Tab Credit: Tommie Sissons

Check out the band Divide!:
https://www.facebook.com/Divide.officialband?fref=ts
Добавлено: 17.11.2013
Другие материалы по этой песне:
  • Аккорды и текст

Страница создана 17.11.2013
http://primanota.ru/misc-unsigned-bands/divide-hayley-chords.htm
Привет, Гость.
Предлагаем пройти революционный курс по гитаре.
Подарок от PrimaNota.Ru, забирай!