PrimaNota.ru - самый крупный в мире бесплатный архив песенных текстов, аккордов, табулатур и нот


Misc Unsigned Bands - Dismember The Fallen - Dont Let Go - таба

Регистрация Запомнить меня
Войти через:  Facebook Google Twitter Vk Yandex Mail.ru

Misc Unsigned Bands - Dismember The Fallen - Dont Let Go - таба

Печатать
Просмотров: 53
Уроки эстрадного вокала в Санкт-Петербурге
Hey everyone, this song is in Drop B so yeah haha and my next song that I'll post up is
"6842" by the same band because I havent found any tabs from this band so I had to play
by ear so enjoy it and there will be alot more tabs for this band ;D leave a comment of 
whatever you wanna say and i'll be sure to reply!!.

Dismember The Fallen
Don't Let Go
Drop B

[INTRO]
C#|------------------------------------------------------------------|
G#|------------------------------------------------------------------|
E |------------------------------------------------------------------|
B |----------------------------------------77775555------------------| X2
F#|-------0~88887777444455551~----------0~---------777788884~--------|
B |00000000~---------------------00000000~---------------------------|
   .......                       .......
C#|------------------------------------------------------------------|
G#|------------------------------------------------------------------|
E |------------------------------------------------------------------|
B |------------------------------------------------------------------| x2
F#|0h7h8[4x]-0h5h7[2x]-0h4h5[2x]---0h7h8[4x]-0h10h12[2x]-0h8h10[2x]-0|
B |------------------------------------------------------------------|

C#|-------|
G#|-------|
E |-------|
B |0~---0~|
F#|0~---0~|
B |0~---0~|

[VERSE]
C#|------------------------------------------------------------------|
G#|------------------------------------------------------------------|
E |------------------------------------------------------------------|
B |------------------------------------------------------------------| x2
F#|--8-7-4-5-1-4-0~-[2X]-----12-10-8-10-7-8-7~--[2X]-----------------|
B |00-0-0-0-0-0-0----------00--0--0-0--0-0-0-------------------------|
   .. . . . . . .          ..  .  . .  . . .
[CHORUS]
C#|------------------------------------------|
G#|------------------------------------------|
E |------------------------------------------|
B |-------8~---10~---------10~---------7~----| x2
F#|-------8~---8~----------8~----------5~----|
B |00000008~-0-7~---00000008~---00000005~----|
   .......   .      .......     .......
C#|--------------|
G#|--------------|
E |--------------|
B |8-----10------|
F#|8[16]-10[16]--|
B |8-----10------|

C#|--------13h17p13----------|
G#|------15--------15--------|
E |----14------------14------|
B |--15----------------15----| x4
F#|17--------------------17--|
B |--------------------------|

C#|--------------|
G#|--------------|
E |--------------|
B |8-----10------|
F#|8[16]-10[16]--|
B |8-----10------|
                   do this 4 times. fourth time is..
C#|17p13--------------13h17t18p17p13--------------13-|    |17-----|
G#|-----15----------15--------------15----------15---|    |-------|
E |-------14------14------------------14------14-----|    |-------|
B |---------15--15----------------------15--15-------| x4 |-------|
F#|-----------17--------------------------17---------|    |--17~--|
B |--------------------------------------------------|    |-------|

[VERSE]
C#|------------------------------------------------------------------|
G#|------------------------------------------------------------------|
E |------------------------------------------------------------------|
B |------------------------------------------------------------------| x2
F#|--8-7-4-5-1-4-0~-[2X]-----12-10-8-10-7-8-7~--[2X]-----------------|
B |00-0-0-0-0-0-0----------00--0--0-0--0-0-0-------------------------|
   .. . . . . . .          ..  .  . .  . . .
[CHORUS]
C#|------------------------------------------|
G#|------------------------------------------|
E |------------------------------------------|
B |-------8~---10~---------10~---------7~----| x2
F#|-------8~---8~----------8~----------5~----|
B |00000008~-0-7~---00000008~---00000005~----|
   .......   .      .......     .......
C#|--------------|
G#|--------------|
E |--------------|
B |8-----10------|
F#|8[16]-10[16]--|
B |8-----10------|

C#|--------13h17p13----------|
G#|------15--------15--------|
E |----14------------14------|
B |--15----------------15----| x4
F#|17--------------------17--|
B |--------------------------|

C#|--------------|
G#|--------------|
E |--------------|
B |8-----10------|
F#|8[16]-10[16]--|
B |8-----10------|
                   do this 4 times. fourth time is..
C#|17p13--------------13h17t18p17p13--------------13-|    |17-----|
G#|-----15----------15--------------15----------15---|    |-------|
E |-------14------14------------------14------14-----|    |-------|
B |---------15--15----------------------15--15-------| x4 |---0~--|
F#|-----------17--------------------------17---------|    |---0~--|
B |--------------------------------------------------|    |---0~--|

[BREAKDOWN]
C#|-----------------------------------------------|
G#|-----------------------------------------------|
E |-----------------------------------------------|
B |-----------------------------------------------| X2
F#|-----------------------------------------------|
B |00-00-0~-0~-0~--0000--0~-0~-0~-00-00-0~-0~-0~--|
   .. ..           ....           .. ..
C#|-----------------------------------------------|
G#|-----------------------------------------------|
E |-----------------------------------------------|
B |-----------------------------------------------| X2
F#|00-00-0~-0~-0~--0000--0~-0~-0~-00-00-0~-0~-0~--|
B |00-00-0~-0~-0~--0000--0~-0~-0~-00-00-0~-0~-0~--|
   .. .. .  .  .   ....  .  .  .  .. .. .  .
C#|-----------------------------------------------|
G#|-----------------------------------------------|
E |-----------------------------------------------|
B |-----------------------------------------------|
F#|00-00-0~-0~-0~--0000--0~-0~-0~-00-00-0~-0~-0~--|
B |11-11-1~-1~-1~--1111--1~-1~-1~-11-11-1~-1~-1~--|
   .. ..           ....           .. ..
C#|-----------------------------------------------|
G#|-----------------------------------------------|
E |-----------------------------------------------|
B |-----------------------------------------------|
F#|00-00-0~-0~-0~--0000--0~-0~-0~-00-00-0~-0~-0~--|
B |00-00-0~-0~-0~--0000--0~-0~-0~-00-00-0~-0~-0~--|
   .. .. .  .  .   ....  .  .  .  .. .. .  .
C#|---|
G#|---|
E |---|
B |---|
F#|00-|
B |00-|
   ..


  END
 let me know if you have any concern about this tab or if I made a mistake ;D
Добавлено: 12.08.2013
Другие материалы по этой песне:
  • Аккорды и текст

Страница создана 12.08.2013
http://primanota.ru/misc-unsigned-bands/dismember-the-fallen-dont-let-go-chords.htm
Привет, Гость.
Предлагаем пройти революционный курс по гитаре.
Подарок от PrimaNota.Ru, забирай!