PrimaNota.ru - самый крупный в мире бесплатный архив песенных текстов, аккордов, табулатур и нот


Misc Unsigned Bands - Dionaea - Carrier - бас-таба

Регистрация Запомнить меня
Войти через:  Facebook Google Twitter Vk Yandex Mail.ru

Misc Unsigned Bands - Dionaea - Carrier - бас-таба

Печатать
Просмотров: 123
------------------------------------------------------------------------------
                             Dionaea - Carrier
------------------------------------------------------------------------------

Legend

/  slide up, \  slide down, h  hammer-on, p  pull-off, ~  vibrato,            



Time - 0:00 2x

G|---------------------------------------------------------------------------|
D|---12-----------5----------------------------------------------------------|
A|------9-10~--------2-3~----------------------------------------------------|
D|-9------------2------------------------------------------------------------|

Time - 0:11 2x

G|---------------------------------------------------------------------------|
D|-----12-12---------------------------------5-5-----------------------------|
A|-----------9-9-10----9-10-9----9-10------------2-2-3---2-3-2---2-3---------|
D|-9-9--------------12--------12---------2-2-----------5-------5-------------|

Time - 0:22 1x

G|-----------------------5-4-------------------------------------------------|
D|-----5-5-------------------------------------------------------------------|
A|---------2-2-3---2-3-2-----------------------------------------------------|
D|-2-2-----------5-----------------------------------------------------------|

Time - 0:25 4x(3rd time play part at 0:37)

G|--------7----------7-7/11----------------11-16-14-11-----------------------|
D|------9----------9--------14-------11-12-------------12-14-11--------------|
A|-7-10-----7-7-10----------------14----------------------------12-----------|
D|---------------------------------------------------------------------------|

Time - 0:37 1x

G|--------7-7/11-9-----------------------11-------16-14-11-------------------|
D|------9----------12-9-7----------11-12----12-11----------12-14-12-11h12p---|
A|-7-10-------------------10-7--14----------------------------------------12-|
D|---------------------------------------------------------------------------|

Time - 0:49 1x

G|---------4-4h5p------------------------------------------------------------|
D|-----5-5--------5-4-2------------4-4/9\7-----------------------------------|
A|-7-7---------------------2-2-5-5-------------------------------------------|
D|---------------------------------------------------------------------------|


G|---------4-4h5p------------------------------------------------------------|
D|-----5-5--------5-4--------------4-4/9\7-----------------------------------|
A|-7-7---------------------2-2-5-5-------------------------------------------|
D|---------------------------------------------------------------------------|

Time - 1:01 2x

G|---------------------------------------------------------------------------|
D|-------7\4-------7\4-------7\4-------7\4-4/7-------------------------------|
A|-0-0-0-----0-0-0-----0-0-0-----0-0-0---------------------------------------|
D|---------------------------------------------------------------------------|



G|---------------------------------------------------------------------------|
D|-------11\7-------11\9-------11\7-------11\9-9/11-11\7-7-------------------|
A|-0-0-0------0-0-0------0-0-0------0-0-0------------------------------------|
D|---------------------------------------------------------------------------|

Time - 1:17 4x

G|---------------------------------------------------------------------------|
D|---------------------------------------------------------------------------|
A|-10-9----------------------------------------------------------------------|
D|---------------------------------------------------------------------------|

Time - 1:40 4x

G|---------------------------------------------------------------------------|
D|----12---------9-----------------------------------------------------------|
A|-10----10----9---9---------------------------------------------------------|
D|---------------------------------------------------------------------------|

Time - 2:03 2x

G|---------------------------------------------------------------------------|
D|---------------------------------------------------------------------------|
A|-10-10-10-10-10-10-10-10-9-9-9-9-9-9-9-9-----------------------------------|
D|---------------------------------------------------------------------------|

Time - 2:14 1x

G|---------9--------------9-11-12/14-14/16-----------------------------------|
D|----9-12---12-9----9-12----------------------------------------------------|
A|-10-------------10---------------------------------------------------------|
D|---------------------------------------------------------------------------|
 

G|---------9--------------11-9----11-12-12/14-12-11-9-11-9-------------------|
D|----9-12---12-9----9-12------12--------------------------------------------|
A|-10-------------10---------------------------------------------------------|
D|---------------------------------------------------------------------------|

Time - 2:25 1x

G|---------------------------------------------------------------------------|
D|---------------------------------------------------------------------------|
A|---------------------------------------------------------------------------|
D|-0-------------------------------------------------------------------------|

Time - 2:31 3x

G|---------------------------------------------------------------------------|
D|---------------------------------------------------------------------------|
A|---------------------------------------------------------------------------|
D|-7-4-12-9-9-12-4-7---------------------------------------------------------|

Time - 2:48 1x

G|---------------------------------------------------------------------------|
D|-----11-11----7----------------12-12-------------9-7-----------------------|
A|-----------7-9---9-7-----------------10-9------------9---------------------|
D|-7-7-----------------9-7-7/9-9------------12-9-7---------------------------|

Time - 2:53 2x  

G|---------------------------------------------------------------------------|
D|-----11-11----7----------------12-12---------------7-9---------------------|
A|-----------7-9---9-7-----------------10-9--------9-------------------------|
D|-7-7-----------------9-7-7/9-9------------12-9-7---------------------------|

Time - 3:05 1x

G|---------------------------------------------------------------------------|
D|-----11-11----7----------------12-12---------------------------------------|
A|-----------7-9---9-7-----------------10-9----------------------------------|
D|-7-7-----------------9-7-7/9-9------------12-9-7---------------------------|

Time - 3:10 2x

G|---------------------------------------------------------------------------|
D|---------------------------------------------------------------------------|
A|---------------------------------------------------------------------------|
D|-7-7-0-4-4-0-12-12-0-9-9-0--9-9-0-12-12-0-16-16-0-19-19-0------------------|


G|---------------------------------------------------------------------------|
D|---------------------------------------------------------------------------|
A|---------------------------------------------------------------------------|
D|-19-19-0-16-16-0-12-12-0-9-9-0--9-9-0-12-12-0-4-4-0-7-7-0------------------|

Time - 3:33 2x

G|---------------------------------------------------------------------------|
D|---------------------------------------------------------------------------|
A|---------------------------------------------------------------------------|
D|-7-7-7-0-4-4-4-0-12-12-12-0-9-9-9-0-9-9-9-0-12-12-12-0-4-4-4-0-7-7-7-0-----|

Time - 3:44 1x

G|---------------------------------------------------------------------------|
D|---------------------------------------------------------------------------|
A|---------------------------------------------------------------------------|
D|-7-7-7-7-4-4-4-4-12-12-12-12-9-9-9-9--9-9-9-9-12-12-12-12-16-16-16-16------|


G|---------------------------------------------------------------------------|
D|---------------------------------------------------------------------------|
A|---------------------------------------------------------------------------|
D|-19-19-19-19--19-19-19-19-16-16-16-16-12-12-12-12-9-9-9-9------------------|


G|---------------------------------------------------------------------------|
D|---------------------------------------------------------------------------|
A|---------------------------------------------------------------------------|
D|-9-9-9-9-12-12-12-12-4-4-4-4-7-7-7-7---------------------------------------|

Time - 3:56 1x

G|---------------------------------------------------------------------------|
D|---------------------------------------------------------------------------|
A|---------------------------------------------------------------------------|
D|-0-------------------------------------------------------------------------|

Time - 4:18 1x

G|---------------------------------------------------------------------------|
D|-----------6-6-6/7-7/9------------------6/7-7/9----------------------------|
A|-4-4-4-4/7----------------4-4-4-4-7-7-7------------------------------------|
D|---------------------------------------------------------------------------|

Time - 4:29 4x

G|---------------------------------------------------------------------------|
D|-----------4-----6--------------4-----6------------------------------------|
A|---------------------------------------------------------------------------|
D|-4-0-0-0-4---0-5------4-0-0-0-4---4-5--------------------------------------|

Time - 4:41 2x

G|---------------------------------------------------------------------------|
D|---------------------------------------------------------------------------|
A|-4-0-4-0-4-0--4-0-4-0-4-0--------------------------------------------------|
D|---------------------------------------------------------------------------|

Time - 4:49 2x

G|---------------------------------------------------------------------------|
D|-------------6-6-----------------------------------------------------------|
A|-4-0-4-0-4-0------4-0-4-0-4-0-7-7-7-7--------------------------------------|
D|---------------------------------------------------------------------------|

Time - 4:58 4x

G|---------------------------------------------------------------------------|
D|-----------6-6-6-6-6-6-----------------------------------------------------|
A|-4-4-4-4-4-------------4-4-4-4-4-7-7-7-7-7-7-------------------------------|
D|---------------------------------------------------------------------------|

Time - 5:15 6x

G|---------------------------------------------------------------------------|
D|-------------7-6-----9-6--------------7-6-----6----------------------------|
A|-4-0-4-0-4-0-----7-4------4-0-4-0-4-0-----7-9---7--------------------------|
D|---------------------------------------------------------------------------|

Time - 5:40 2x

G|---------------------------------------------------------------------------|
D|-------------6-6-6-6-6-6---------------------------------------------------|
A|-4-0-4-0-4-0-------------4-0-4-0-4-0-7-7-7-7-7-7---------------------------|
D|---------------------------------------------------------------------------|

Time - 5:49 2x

G|---------------------------------------------------------------------------|
D|-------6-6-----------------------------------------------------------------|
A|-4-4-4------4-4-4-7-7------------------------------------------------------|
D|---------------------------------------------------------------------------|

Time - 5:57 2x

G|---------------------------------------------------------------------------|
D|-------7-6-----9-6--------7-6-----6----------------------------------------|
A|-4-4-4-----7-4------4-4-4-----7-9---7--------------------------------------|
D|---------------------------------------------------------------------------|

Time - 6:05 4x

G|---------------------------------------------------------------------------|
D|-------------9-9-9-9-6-6-------------6-6-6-6-------------------------------|
A|-4-0-4-0-4-0-------------4-0-4-0-4-0---------7-7---------------------------|
D|---------------------------------------------------------------------------|

Time - 6:22 1x

G|---------------------------------------------------------------------------|
D|---------------------------------------------------------------------------|
A|-7-0-7---------------------------------------------------------------------|
D|---------------------------------------------------------------------------|

------------------------------------------------------------------------------
                             Dionaea - Carrier
------------------------------------------------------------------------------
Добавлено: 06.09.2013
Другие материалы по этой песне:
  • Аккорды и текст

Страница создана 06.09.2013
http://primanota.ru/misc-unsigned-bands/dionaea-carrier-chords.htm
Привет, Гость.
Предлагаем пройти революционный курс по гитаре.
Подарок от PrimaNota.Ru, забирай!