PrimaNota.ru - самый крупный в мире бесплатный архив песенных текстов, аккордов, табулатур и нот


Misc Unsigned Bands - Demise Dishonour - Atlas - таба

Регистрация Запомнить меня
Войти через:  Facebook Google Twitter Vk Yandex Mail.ru

Misc Unsigned Bands - Demise Dishonour - Atlas - таба

Печатать
Просмотров: 62
Demise & Dishonour - Atlas (Acoustic Chords)

you guys will have to figure out the strumming for yourselves but the chord 
progressions are all there.


* = single strum/ring out

Verse 1
e-|-0--0--0--0--0--0-|-0--0--0--0--0--0*-|       
B-|-0--0--0--0--0--0-|-0--0--0--0--0--0*-|       
G-|-6--9--4--2--2--4-|-6--9--4--2--2--3*-|  
D-|-6--9--4--2--2--4-|-6--9--4--2--2--4*-|   
A-|-4--7--2--0--0--2-|-4--7--2--0--0--4*-|
E-|------------------|----0-----------2*-|         

Bridge
e-|-0--0-|
B-|-0--0-|
G-|-2--4-|
D-|-2--4-|
A-|-0--2-|
E-|------|

Chorus 1
e-|-0--0--0--0-|-0--0--0--0-|-0--0--0--0-|-0--0--0--0-|-0*--0*-|
B-|-0--0--0--0-|-0--0--0--0-|-0--0--0--0-|-0--0--0--0-|-0*--0*-|
G-|-6--2--1--4-|-6--2--1--4-|-6--2--1--4-|-2--2--4--4-|-6*--6*-|
D-|-6--2--2--4-|-6--2--2--4-|-6--2--2--4-|-2--2--4--4-|-6*--6*-|
A-|-4--0--2--2-|-4--0--2--2-|-4--0--2--2-|-0--0--2--2-|-4*--4*-|
E-|-------0----|-------0----|-------0----|------------|--------|


Chorus out
e-|-0*--0*-|
B-|-0*--0*-|  
G-|-6*--6*-|  
D-|-6*--6*-|
A-|-4*--4*-|
E-|--------|

Verse 2
e-|-0--0--0--0--0--0-|
B-|-0--0--0--0--0--0-|
G-|-6--9--4--2--2--4-|
D-|-6--9--4--2--2--4-|
A-|-4--7--2--0--0--2-|
E-|------------------|    


Middle 8
e-|-0--0--0--0-|........|-0--0--0-|-0--0*-|
B-|-0--0--0--0-|........|-0--0--0-|-0--0*-|
G-|-2--2--4--4-|..(x2)..|-6--1--2-|-2--4*-|
D-|-2--2--4--4-|........|-6--2--2-|-2--4*-|
A-|-0--0--2--2-|........|-4--2--0-|-0--2*-|
E-|------------|........|----0----|-------|

Chorus 2


Guitar Solo
e-|-0--0--0--0-|-0--0--0--0-|
B-|-0--0--0--0-|-0--0--0--0-|
G-|-2--4--6--6-|-2--4--6--1-|
D-|-2--4--6--6-|-2--4--6--2-|
A-|-0--2--4--4-|-0--2--4--2-|
E-|------------|----------0-|    

Chorus out
e-|-0*--0*-|
B-|-0*--0*-|  
G-|-6*--6*-|  
D-|-6*--6*-|
A-|-4*--4*-|
E-|--------|

Slow Chorus build
e-|-0*--0*--0--0-|
B-|-0*--0*--0--0-|
G-|-6*--2*--1--4-|
D-|-6*--2*--2--4-|
A-|-4*--0*--2--2-|
E-|---------0----|


Chorus 3
e-|------------|-0--0--0--0-|-0--0--0--0-|-0--0--0--0-|
B-|------------|-0--0--0--0-|-0--0--0--0-|-0--0--0--0-|
G-|------------|-6--2--1--4-|-6--2--1--4-|-2--2--4--4-|
D-|------------|-6--2--2--4-|-6--2--2--4-|-2--2--4--4-|
A-|------------|-4--0--2--2-|-4--0--2--2-|-0--0--2--2-|
E-|------------|-------0----|-------0----|------------|


Outro
e-|-0--0--0--0--|-0*-|
B-|-0--0--0--0--|-0*-|
G-|-6--2--9--1--|-1*-|
D-|-6--2--9--2--|-2*-|
A-|-4--0--7--2--|-2*-|
E-|----------0--|-0*-|
Добавлено: 08.12.2013
Другие материалы по этой песне:
  • Аккорды и текст

Страница создана 08.12.2013
http://primanota.ru/misc-unsigned-bands/demise-dishonour-atlas-chords.htm
Привет, Гость.
Предлагаем пройти революционный курс по гитаре.
Подарок от PrimaNota.Ru, забирай!