PrimaNota.ru - самый крупный в мире бесплатный архив песенных текстов, аккордов, табулатур и нот


Misc Unsigned Bands - Dehaan - Lights - аккорды и текст

Регистрация Запомнить меня
Войти через:  Facebook Google Twitter Vk Yandex Mail.ru

Misc Unsigned Bands - Dehaan - Lights - аккорды и текст

Печатать
Просмотров: 120
Уроки эстрадного вокала в Санкт-Петербурге
Dehaan - Lights
Misc Unsigned Bands
Standard Tuning EADGBe 


{Intro}
D - Bm - D - A - Bm - C - D-C-D


Chorus 1: 

         D         Bm          C
When the lights go down in the city
        D          Bm     C
And the sun shines on the bay
       D          Bm        C
Ooo, I wanna be there in my city, ooo-oo-oooh
Bm   C    D   C  D
Oooh oooh ooo-oo-oh


Verse 1:

D        Bm           C
So you think you're lonely
D       Bm            C
Well my friend I'm lonely too
D             Bm         C
I want to get back to my city by the bay
Bm   C    D   C  D
Woah oooh ooo-oo-oh


Bridge: 

     Bm   G                   D
It's sad, oooh, there's been mornings
                    Bm    G                D     A
Out on the road without you,  Without your charms
Bm           G           D
Woo-oo-oh oh My my my my my my
Bm   C    D   C  D
Woah oooh ooo-oo-oh


Chorus 2: 

         D         Bm          C
When the lights go down in the city
        D          Bm     C
And the sun shines on the bay
       D          Bm        C
Ooo, I wanna be there in my city, ooo-oo-oooh
Bm   C    D   C  D
Woah oooh ooo-oo-oh

{Solo}

Bm - G - D  -
Bm - G - D - A -
Bm - G - D  -
Bm - C - D-C-D


Chorus 2: 

         D         Bm          C
When the lights go down in the city
        D          Bm     C
And the sun shines on the bay
       D          Bm        C
Ooo, I wanna be there in my city, ooo-oo-oooh
Bm   C    D   C  D
Woah oooh ooo-oo-oh, mmmmmm
Bm   C    D   C  D
Woah oooh ooo-oo-oh


INTRO:
|------------------|-----------------|------------------|----------------=
|---------7--------|-------7---------|------------------|-------2h3p2----=
|-----7---7h9-7----|-------7h9p7---7-|--------7h9p7--7\-|-----2----------=
|----------------9-|-----7-------7---|--------7------9\-|---2------------=
|-7/9---9----------|---9-------------|-7/9--9-----------|-0--------------=
|------------------|-7---------------|------------------|----------------=

|----------------|---------------------|----------------|----------------=
|----------------|---------------------|----------------|----------------=
|-------7h9p7----|---------10p9--------|-----7----------|----------------=
|-----7----------|------10-------10----|---7------------|----------------=
|---9------------|---10-------------10-|-9--------------|----------------=
|-7--------------|-8-------------------|----------------|----------------=

     

Guitar Solo:

|-12b~~~-12b~~r-10-|-12-10~~~~-10----10-|12b~~~-12b~~~-12p10-|-12------12=
|------------------|--------------12----|--------------------|---10~~~---=
|------------------|--------------------|--------------------|-----------=
|------------------|--------------------|--------------------|-----------=
|------------------|--------------------|--------------------|-----------=
|------------------|--------------------|--------------------|-----------=

|-10~~~-7-------------------|-------------|-----------------|------------=
|---------10-7--------------|-------------|-----------------|----------10-12
|--------------9b--9p7---7~~|~~------7--9-|-9b---9b~~~--9p7-|-9~~-9/11---=
|----------------------9----|---7/9-------|-----------------|------------=
|---------------------------|-------------|-----------------|------------=
|---------------------------|-------------|-----------------|------------=

|-10----10-10-10----10-10-|-10----------------|-10-----------------------=
|-10h12-12-12-10h12-12-12-|-12p10-------10-12-|---10-12--10--7-----------=
|-------------------------|-------12~~~-------|--------11--9---9---7-----=
|-------------------------|-------------------|------------------9---7---=
|-------------------------|-------------------|--------------------------=
|-------------------------|-------------------|--------------------------=

|---------------------|-15b-15p13--------|-15b-15p13-15--13bq-13bq--|----=
|---------------------|-----------15~~~~-|--------------------------|----=
|---------------------|------------------|--------------------------|----=
|-9---7---------------|------------------|--------------------------|----=
|---9---7-9--7h9p7\5--|------------------|--------------------------|----=
|---------------------|------------------|--------------------------|----=
                                     
|-------------------|-17----17-17-17-------------|-17~~-17\--------------=
|-15~~~-------15-17-|-17h19-19-19-19-17-19-17----|-19---19\--------------=
|-------14/16-------|-------------------------19-|-----------------------=
|-------------------|----------------------------|----------7h9----------=
|-------------------|----------------------------|--------------7h9------=
|-------------------|----------------------------|-----------------------=

|----------------|--------------------|-----------------|----------------=
|----------------|--------------------|-----------------|----------------=
|----------7-----|-------5---------5--|-5/7~~~--5\2-----|-----9----------=
|-------9--------|----5---------5-----|--------------5--|-4------7h9-----=
|----9-----------|-7-------5/7--------|-----------------|------------7h9-=
|-7--------------|--------------------|-----------------|----------------=
                                                       
|-----------------|----------------|---------------------|---------------=
|----------7------|----------------|---------------------|---------------=
|----------7--7---|-----5-------5--|-5/7-\-5-/-7-\-5~~~~-|-------7-------=
|-------9-------9-|---5-------5----|---------------------|-----7---7-----=
|----9------------|-7-----5/7------|---------------------|---9-------9---=
|-7---------------|----------------|---------------------|-7-------------=

|--------------|-----------------|---------------------|-----------------=
|--------------|-----------------|---------------------|-----------------=
|-5------------|-----7--9/11~~~--|-11--7---------------|-------9--7---7--=
|--------------|---7-------------|--------9--7--7\4----|-----9-----------=
|--------------|-9---------------|-------------------5-|---9-------------=
|--------------|-----------------|---------------------|-7---------------=

|--------------------|-----------------|-----------------||
|----------5---------|-8/10-\-8----7---|-----------------||
|-5----5-------------|-9/11-\-9----7---|-----------------||
|--------------------|-----------------|-----------------||
|--------------------|-----------------|-----------------||
|--------------------|-----------------|-----------------||






Добавлено: 07.09.2015
Другие материалы по этой песне:
  • Аккорды и текст

Страница создана 07.09.2015
http://primanota.ru/misc-unsigned-bands/dehaan-lights-chords.htm
Привет, Гость.
Предлагаем пройти революционный курс по гитаре.
Подарок от PrimaNota.Ru, забирай!