PrimaNota.ru - самый крупный в мире бесплатный архив песенных текстов, аккордов, табулатур и нот


Misc Unsigned Bands - Dear Juliet - Never Change - аккорды и текст, таба, видео

Регистрация Запомнить меня
Войти через:  Facebook Google Twitter Vk Yandex Mail.ru

Misc Unsigned Bands - Dear Juliet - Never Change - аккорды и текст, таба, видео

Печатать
Просмотров: 46
Dear Juliet - Never Change
Misc Unsigned Bands
-------------------------------------------------------------------------------
                 NEVER CHANGE - Dear Juliet (aka Chase Coy)
-------------------------------------------------------------------------------
Tabbed by: Nicole Balagtas
Email: yayitsmexx@gmail.com

Tuning: Standard

NOTE: Not sure if you need a capo, but you can try capo at 0 to maybe capo at 3 and see
sounds best. I couldn't really figure it out.

You can use either Intro 1 (chords) or Intro 2 (tab). (Intro 2 is of my own creation and 
the exact intro to the song that Chase Coy does.)

Chords: (respective to capo)

G - 320033
Em - 022033
C - 032033
D - 200233


Intro 1:

G  Em  C  D

Intro 2:

e|--------3------3------3---------------|
B|----------3------3------3-------------|
G|------------0------0------0-----------|
D|----------------------------0---------|
A|---2----------------------------------|
E|-3---3--------------------------------|

e|--------3------3------3---------------|
B|----------3------3------3-------------|
G|------------0------0------0-----------|
D|-----2----------------------2---------|
A|---2----------------------------------|
E|-0------------------------------------|

e|---------3------3------3--------------|
B|-----------3------3------3------------|
G|-------0-----0------0------0----------|
D|-----2----------------------2---------|
A|---3----------------------------------|
E|--------------------------------------|

e|---------3------3------3--------------|
B|-----------3------3------3------------|
G|-------------2------2------2----------|
D|-----0--------------------------------|
A|---0----------------------------------|
E|--2-----------------------------------|


Verse 1:
G                 Em
If you hear this, wherever you are
     C                               D
Just know I need you here I need you near me now
         G
You were brighter than the pale white moon,
  Em
reflecting in your eyes
     C                                 D
So I guess It's no surprise I can't forget you

No matter what I do


Chorus:
G                   Em
I will always carry you, in my heart
C                            D
You'll always be my shooting star
G
Autumn days will fade away,
    Em                            C
the memories will always stay the same
                          D
I'm hoping you will never change,
           G      Em    C     D
don't ever change


Verse 2:
G              Em
I just need to slow down for awhile
    C
I'm missing your warm smile,
        D
and the way you used to say,
G                                Em
"Stay with me until the daylight breaks.
                  C
No matter what it takes just say you'll stay,
                D
just say you'll stay."


Chorus:
G                   Em
I will always carry you, in my heart
C                            D
You'll always be my shooting star
G
Autumn days will fade away,
    Em                            C
the memories will always stay the same
                          D
I'm hoping you will never change,
           G
don't ever change
Добавлено: 10.02.2014
Другие материалы по этой песне:
  • Аккорды и текст

Страница создана 19.08.2013
http://primanota.ru/misc-unsigned-bands/dear-juliet-never-change-chords.htm
Привет, Гость.
Предлагаем пройти революционный курс по гитаре.
Подарок от PrimaNota.Ru, забирай!