PrimaNota.ru - самый крупный в мире бесплатный архив песенных текстов, аккордов, табулатур и нот


Misc Unsigned Bands - Dax Riggs - Radiation Blues - таба

Регистрация Запомнить меня
Войти через:  Facebook Google Twitter Vk Yandex Mail.ru

Misc Unsigned Bands - Dax Riggs - Radiation Blues - таба

Печатать
Просмотров: 48
WWW.DAXRIGGS.COM
HTTP://WWW.MYSPACE.COM/DAXRIGGS
TAB: RADIATION BLUES

Radiation Blues
by: DAX RIGGS

TAB IS IN "DROPED D"

TABBED BY CODY aka DAMN DIRTY HIPPY
www.myspace.com/hymnsofbloodorlove
www.myspace.com/codyincharge

intro/CHORUS
E------------------------------------------------------------------|
G--------------------------------2---------------------------------|
B--------------------------------2-----2/4-4-2---------------------|
D----(3)--x---x---x-------------2--4--2/4-4-2--4-------------------|
A----(3)--x---x---x---2---4-4--0--4--0--------4--------------------|
D----(3)--X---X---x---2---4-4-----------------4--------------------|


E-----------------------------------------------|
G-----------------------------------------------|
B---------------2-------------------------------|
D---------------2-----2--2-4--2--2-4------------|
A-----2---4-4--0--4--2--2-4--2--2-4-------------|
D-----2---4-4-----4--2--2-4--2--2-4-------------|

RIFF1
E-----------------------------------------------------------|
G-----------------------------------------------------------|
B-----------------------------------------------------------|
D-----------------------------------------------------------|
A----4-4-XX-7-7-7-X-9-9-X-5/4-4--4-4-XX-7-7-7-X-9-9--5/4-4--|
E----4-4-XX-7-7-7-X-9-9-X-5/4-4--4-4-XX-7-7-7-X-9-9--5/4-4--|

RIFF2
E--------------------------------------------------------------|
G--------------------------------------------------------------|
B--------------------------------------------------------------|
D---9-9-9-9-4-4-4-4--------------------------------------------|
A---7-7-7-7-2-2-2-2-9-7-4-X-4-4--7-7--4----7-7--4--------------|
E----------------------9-7-4-X-4-4--7-7--4----7-7--4-----------|

THOSE SHOULD BE PRETTY CLOSE THERES A LOT OF HAMMER ONS AND BENDS THAT I DIDN'T TRY TO
IN THERE BUT IF YOU LISTEN TO IT YOU SHOULD BE ABLE TO GET THE FEEL FOR IT.

AFTER THE INTRO/CHORUS REPEATS MIDWAY THROUGH THERES A LITTLE BREAKDOWN THE FIRST TIME 
GO INTO RIFF1
ANY CORRECTIONS OR WHATEVER JUST HIT ME UP
Добавлено: 15.01.2014
Другие материалы по этой песне:
  • Аккорды и текст

Страница создана 15.01.2014
http://primanota.ru/misc-unsigned-bands/dax-riggs-radiation-blues-chords.htm
Привет, Гость.
Предлагаем пройти революционный курс по гитаре.
Подарок от PrimaNota.Ru, забирай!