PrimaNota.ru - самый крупный в мире бесплатный архив песенных текстов, аккордов, табулатур и нот


Misc Unsigned Bands - Datus Tribe - Lakambini Bottom - таба

Регистрация Запомнить меня
Войти через:  Facebook Google Twitter Vk Yandex Mail.ru

Misc Unsigned Bands - Datus Tribe - Lakambini Bottom - таба

Печатать
Просмотров: 33
Song         : Lakambini Bottom
Artist       : Datu's Tribe
Album        : Galit Kami Sa Baboy!
Transcribe by: Patrick Baraquel - Antipolo City
Friendster   : popoybibbo@rock.com < message me if you have comments or  
               suggestions "add me">
Dedicated to : pra s mga eX ko at pra s future gf ko.. sa N4(negro 4ever) 
               paulo, jepoy, garz and jojo... s mga bourgeois ng grinpark..
               pra s pamilya ko and s mga utol ko "epang and charles"...
               lastly, PARA SAYO!!! LOL! IF U DONT MIND PLS RATE IT NLNG! =D
Suggestion   : sabayan mo un kanta

Intro:  G-D-C 4x 

I.      
e|---3--3------------|
B|---3--2--1---------|
G|---0--3------------|
D|---0--0--2---(4x)--|
A|---2-----3---------|
E|---3---------------|

II.
e|---x--x--x---------|
B|---x--x--x---------|
G|---x--x--x---------|
D|---x--7--5---(4x)--|
A|---5--5--3---------|
E|---3--x--x---------|

verse I: G-D-E-C

e|---x----x----x----x---------|
B|---x----x----x----x---------|
G|---x----x----x----x---------|
D|---x----7----9----5---(2x)--|
A|---5----5----7----3---------|
E|---3----x----x----x---------|

Pagbaba palang ng comb ay tinitigan ko na 
Tibok ng puso ko niyayanig ng lakad nya 
46 ang waist 
58 ang bra 
350 pounds na gumigiling sa kalsada 

after verse: play intro II (2x)


verse II: G-D-E-C

e|---x----x----x----x---------|
B|---x----x----x----x---------|
G|---x----x----x----x---------|
D|---x----7----9----5---(2x)--|
A|---5----5----7----3---------|
E|---3----x----x----x---------|

Tuwing sya
Добавлено: 20.08.2013
Другие материалы по этой песне:
  • Аккорды и текст

Страница создана 20.08.2013
http://primanota.ru/misc-unsigned-bands/datus-tribe-lakambini-bottom-chords.htm
Привет, Гость.
Предлагаем пройти революционный курс по гитаре.
Подарок от PrimaNota.Ru, забирай!