PrimaNota.ru - самый крупный в мире бесплатный архив песенных текстов, аккордов, табулатур и нот


Misc Unsigned Bands - Danielle Ate The Sandwich - Afterwards - таба

Регистрация Запомнить меня
Войти через:  Facebook Google Twitter Vk Yandex Mail.ru

Misc Unsigned Bands - Danielle Ate The Sandwich - Afterwards - таба

Печатать
Просмотров: 38
Capo 6

INTRO(x4) / VERSE
e|-----------------|-----------------|
B|-----------------|-----------------|
G|-----------------|-----------------|
D|---0---0---0---0-|---0---0---0---0-|
A|-----------------|-2---2---0---0---|
E|-2---2---3---3---|-----------------|
It's harder to get up on the right side of the bed these days
But steps in snow make me feel less alone
It's secret I'm still hoping for some kind of X-ray vision
And I would beam into your bedroom blinds just so I knew you were alright

Acting mature is overrated I miss the days of keying cars
And spreading rumors on the bathroom stalls and locker room walls
Where we forgot we looked when we were hoping no one noticed 
Praying someday we'd fit into this mess

CHORUS
e|-----------------|-----------------|
B|-----------------|-----------------|
G|-----------------|-----------------|
D|---0---0---0---0-|---0---0---0---0-|
A|-----------------|-----------------|
E|-3---3---2---2---|-0---0---2---2---|
It won't be long before I
Forget just what it felt like
To fall asleep with you breathing next to me


I shut the door when you left to keep out the cold and myself
From running after you just like I saw in the movies
It's true I have my regrets we never danced on roof tops 
And I have found some fake words to say when a stranger asks about our death


It won't be long before I
Forget just what it felt like
To know that I did not know anything

BRIDGE
e|-----------------|    |-----------------|
B|-----------------|    |-----------------|
G|-----------------|    |-----------------|
D|---0---0---0---0-|x2  |---0---0---0---0-|x2
A|-2---2---2---2---|    |-0---0---0---0---|
E|-3---3---3---3---|    |-2---2---2---2---|
It's safe to say that even though we're disregarding

e|-----------------|    |----| |----|
B|-----------------|    |----| |----|
G|-----------------|    |----| |----|
D|---0---0---0---0-|x2  |----| |----|
A|-2---2---2---2---|    |----| |----|
E|-3---3---3---3---|    |-2--| |-0--|
I can't help but to wonder which song you're humming

And so I sit and pretend I don't mind that I don't know you
or what your schedule might look like on any given Thursday afternoon
somebody wrote this rulebook and so we will make the effort 
to be more scarce in the social situations that we might share

It won't be long before I
Forget just what it felt like
To feel anything for you at all

In lines at grocery stores I
Добавлено: 27.02.2014
Другие материалы по этой песне:
  • Аккорды и текст

Страница создана 27.02.2014
http://primanota.ru/misc-unsigned-bands/danielle-ate-the-sandwich-afterwards-chords.htm
Привет, Гость.
Предлагаем пройти революционный курс по гитаре.
Подарок от PrimaNota.Ru, забирай!