PrimaNota.ru - самый крупный в мире бесплатный архив песенных текстов, аккордов, табулатур и нот


Misc Unsigned Bands - Cromok - Another You - аккорды и текст

Регистрация Запомнить меня
Войти через:  Facebook Google Twitter Vk Yandex Mail.ru

Misc Unsigned Bands - Cromok - Another You - аккорды и текст

Печатать
Просмотров: 43
Cromok - Another You
Misc Unsigned Bands
This is a Song by Cromok. One of the gigantic  Heavy Metal Band in Malaysia, (South East Asia).


*This is by far the best Cromok Riff ever made ( And it's damn great).*
Too sad it is only music, no lyric... :-)


Riff A (intro) 

e|-7-----7---7-----|-------------0-|---------2-2h3p2p0-|-0---------0-----|
B|---0-------------|-1-------3-----|-3-----------------|---0---------0---|
G|-----0-----------|---0---0---0---|---2---2-----------|---------------0-|
D|-----------------|-----2---------|-----4-------------|-----------------|
A|-----------------|-3-------------|-------------------|-----2-----------|
E|-0-------0---23-|---------------|-------------------|-------3-0-------|

e|-7-----7---7-----|-------------0-|---------2-2h3p2p0-|-3-----5-3-------|
B|---0-------------|-1-------3-----|-3-----------------|---0-------0---0-|
G|-----0-----------|---0---0---0---|---2---2-----------|-----0-------0---|
D|-----------------|-----2---------|-----4-------------|-----------------|
A|-----------------|-3-------------|-------------------|-----------------|
E|-0-------0---23-|---------------|-------------------|-0---------------|


Riff B 

e|-12-----10-8---7---|-8-----7-5-------|---------2-2h3p0-|-3-----5-3-------|
B|----0--------0---0-|---5-------8-7-5-|-------0---------|---0-------0---0-|
G|------0------------|-----5-----------|-----2-----------|-----0-------0---|
D|-------------------|-----------------|---1-------------|-----------------|
A|-------------------|-0---------------|-2---------------|-----------------|
E|-0-----------------|-----------------|-----------------|-0---------------|

e|-12-----10-8---7---|-8-----7-5-------|---------2-2h3p0-|---0-------|
B|----0--------0---0-|---5-------8-7-5-|-------0---------|-0---------|
G|------0------------|-----5-----------|-----1-----------|-----------|
D|-------------------|-----------------|---1-------------|-----------|
A|-------------------|-0---------------|-2---------------|-----2-----|
E|-0-----------------|-----------------|-----------------|-0-----3-0-|


Riff C (2x) 

e|-15-----14-15---14----|---------------------|----------10-12----10----|-8-----5-7-------|
B|----0---------0----12-|-13------12-13-------|-10----10-------10----10-|---0-------0---0-|
G|------0---------------|----9----------9----9|----11-------------------|-----0-------0---|
D|----------------------|------10---------10--|--0----------------------|-----------------|
A|----------------------|-0-------------------|-------------------------|-----------------|
E|-0--------------------|---------------------|-------------------------|-0---------------|


Ulang Riff B 

Riff D (2x) 

e|-7------7-7-----7-|-8-----8-8-----|-10-10-10-10-10-10-10-|-8---7h8-5-7-------|
B|-----8--------8---|-----5-------5-|----------------------|---0---------0---0-|
G|---9--------9-----|---5-------5---|-7--7--7--7--7--7--7--|-0-------------0---|
D|------------------|---------------|----------------------|-------------------|
A|------------------|---------------|----------------------|-------------------|
E|------------------|---------------|----------------------|-------------------|


Riff E   

e|-12-----10-8---7---|-8-----7-5-------|---------2-2h3p0-|-3/5-5/7-7-------|
B|----0--------0---0-|---5-------8-7-5-|-3---------------|-----------0---0-|
G|------0------------|-----5-----------|---2---2---------|-------------0---|
D|-------------------|-----------------|-----4-----------|-----------------|
A|-------------------|-0---------------|-----------------|-----------------|
E|-0-----------------|-----------------|-----------------|-----------------|

e|-12-----10-8---7---|-8-----7-5-------|---------2-2h3p0-|---0-------|
B|----0--------0---0-|---5-------8-7-5-|-3---------------|-0---------|
G|------0------------|-----5-----------|---2---2---------|-----------|
D|-------------------|-----------------|-----4-----------|-----------|
A|-------------------|-0---------------|-----------------|-----2-----|
E|-0-----------------|-----------------|-----------------|-0-----3-0-|


Riff F 

e|-5/7-------------|-------------0-|---------2-3-2h3p2p0-|---0---------0-----|
B|-----0-----------|-1-------3-----|-3-------------------|---------------0---|
G|-------0---------|---0---0---0---|---2---2-------------|-----------------0-|
D|-----------------|-----2---------|-----4---------------|-------------------|
A|-----------------|-3-------------|---------------------|------2------------|
E|-0-------0---23-|---------------|---------------------|-0------3-0--------|

e|-5/7-------------|-------------0-|---------2---2h3p2p0-|-3---75-3-------|
B|-----0-----0-----|-1-------3-----|-3---------0---------|---0-------0---0-|
G|-------0---------|---0---0---0---|---2---2-------------|-------------0---|
D|-----------------|-----2---------|-----4---------------|-----------------|
A|-----------------|-3-------------|---------------------|-----------------|
E|-0-------0---23-|---------------|---------------------|-0---------------|


Riff G 

e|-12-----10-8---7---|-8-----7-5-------|---------2---2h3p0---|-3-----5-3-------|
B|----0--------0---0-|---5-------8-7-5-|-------0---0---------|---0-------0---0-|
G|------0------------|-----5-----------|-----2---------------|-----0-------0---|
D|-------------------|-----------------|---1-----------------|-----------------|
A|-------------------|-0---------------|-2-------------------|-----------------|
E|-0-----------------|-----------------|---------------------|-0---------------|

e|-12-----10-8---7---|-8-----7-5-------|---------2---2h3-2-0-0-|-------|
B|----0--------0---0-|---5-------8-7-5-|-------0---0-------0---|-------|
G|------0------------|-----5-----------|-----2-----------------|-------|
D|-------------------|-----------------|---1-------------------|-------|
A|-------------------|-0---------------|-2---------------------|-2-----|
E|-0-----------------|-----------------|-----------------------|---3-0-|


Riff H 

e|-------------0---|-8-----7-5-------|-------------5-|-7---------------------------5---5-----7-5-|
B|-------0-3-----0-|---5-------5---5-|-------5-7-----|---5---8-7-5-----5-------------8---5-------|
G|-----------0-----|-----5-------5---|-----7-----7---|-----5-------7-5---5---5-7-5---------5-----|
D|-----5-----------|-----------------|---7-----------|---------------------5---------------------|
A|---5-------------|-0---------------|-5-------------|-0-----------------------------------------|
E|-3---------------|-----------------|---------------|-------------------------------------------|

e|-------------3---3-|---------5-7-----0---------0--0-----|
B|-----------5---5---|-7-5-7-8-----8-7---------0-----0----|
G|---------5---------|-----------------------0-----0--0---|
D|-------5-----------|---------------------2--------------|
A|-0-2-3-------------|-------------------2----------------|
E|-------------------|-----------------0----------------0-|


Riff Outro

e|-7-----7---7-----|-------------0-|---------2-2h3p2p0-|-0---------0-----|
B|---0-------------|-1-------3-----|-3-----------------|---0---------0---|
G|-----0-----------|---0---0---0---|---2---2-----------|---------------0-|
D|-----------------|-----2---------|-----4-------------|-----------------|
A|-----------------|-3-------------|-------------------|-----2-----------|
E|-0-------0---23-|---------------|-------------------|-------3-0-------|

e|-5/7-----------|-------------0-|---------2-2h3p2p0-|-3-----5-3-------|
B|-----0---------|-1-------3-----|-3-----------------|---0-------0---0-|
G|-------0-------|---0---0---0---|---2---2-----------|-----0-------0---|
D|---------------|-----2---------|-----4-------------|-----------------|
A|---------2-----|-3-------------|-------------------|-----------------|
E|-0---------23-|---------------|-------------------|-0---------------|

e|-12-----10-8---7---|-8-----7-5-------|---------2-2h3p0-|-3-----5-3-------|
B|----0--------0---0-|---5-------8-7-5-|-------0---------|---0-------0---0-|
G|------0------------|-----5-----------|-----2-----------|-----0-------0---|
D|-------------------|-----------------|---1-------------|-----------------|
A|-------------------|-0---------------|-2---------------|-----------------|
E|-0-----------------|-----------------|-----------------|-0---------------|

e|-12-----10-8---7---|-8-----7-5-------|---------2-------2-|-3-2-0---------|
B|----0--------0---0-|---5-------8-7-5-|-------0---0---0-0-|---------------|
G|------0------------|-----5-----------|-----1-------2---2-|---------------|
D|-------------------|-----------------|---1-------------1-|---------------|
A|-------------------|-0---------------|-2---------------2-|---------2-----|
E|-0-----------------|-----------------|-------------------|-----------3-0-|
Добавлено: 18.02.2014
Другие материалы по этой песне:
  • Аккорды и текст

Страница создана 18.02.2014
http://primanota.ru/misc-unsigned-bands/cromok-another-you-chords.htm
Привет, Гость.
Предлагаем пройти революционный курс по гитаре.
Подарок от PrimaNota.Ru, забирай!