PrimaNota.ru - самый крупный в мире бесплатный архив песенных текстов, аккордов, табулатур и нот


Misc Unsigned Bands - Crippled Rejex - Hello Disappear - таба

Регистрация Запомнить меня
Войти через:  Facebook Google Twitter Vk Yandex Mail.ru

Misc Unsigned Bands - Crippled Rejex - Hello Disappear - таба

Печатать
Просмотров: 78
Новый альбом группы 'Черный Кузнец' по культовому сериалу 'Сверхъестественное'!
Tabbed by: Draumo
Tuning: Standard
Tone: Low quality tinny distortion
Difficulty: Easy

Crippled Rejex - Hello Disappear

Intro/Chorus
e|-----------------------------------------------------------------|
B|-----------------------------------------------------------------|
G|-----------------------------------------------------------------|
D|---7-7---9/10--12--10--9--7---5-5--7/8--7------------------------|
A|---7-7---9/10--12--10--9--7---5-5--7/8--7------------------------|
E|---5-5---7/8---10--8---7--5---3-3--5/6--5------------------------|

Verses
e|---------------------------------------------------------------|
B|---------------------------------------------------------------|
G|---------------------------------------------------------------|
D|-----7-7-----5-5-----------------------------------------------|
A|-----7-7-----5-5-----------------------------------------------|
E|-----5-5-----3-3-----------------------------------------------|
Добавлено: 01.03.2014
Другие материалы по этой песне:
  • Аккорды и текст

Страница создана 01.03.2014
http://primanota.ru/misc-unsigned-bands/crippled-rejex-hello-disappear-chords.htm
Привет, Гость.
Предлагаем пройти революционный курс по гитаре.
Подарок от PrimaNota.Ru, забирай!