PrimaNota.ru - самый крупный в мире бесплатный архив песенных текстов, аккордов, табулатур и нот


Misc Unsigned Bands - Colnusca - Nightmares Of The Haunting - таба

Регистрация Запомнить меня
Войти через:  Facebook Google Twitter Vk Yandex Mail.ru

Misc Unsigned Bands - Colnusca - Nightmares Of The Haunting - таба

Печатать
Просмотров: 44
-------------------------------------------------------------------------------
                             Nightmares of the Haunting - Colnusca
-------------------------------------------------------------------------------
Tabbed by: Colnusca
E-mail: colnusca.business@gmail.com

Tuning: Standard

:INTRO = Repeat intro with pick
*
* = Repeat times there are astericks

Intro: (Don't use a pick)

e|---------------------------------------------------------------------------|
B|---------------------------------------------------------------------------|
G|---------------------------------------------------------------------------|
D|---------------------------------------------------------------------------|
A|5---8---5---7---8---7---8---12--8---10--8---7---8---5---7---8---5----------|
E|---------------------------------------------------------------------------|

e|---------------------------------------------------------------------------|
B|---------------------------------------------------------------------------|
G|---------------------------------------------------------------------------|
D|---------------------------------------------------------------------------|
A|5---12--10--8---7---8---12--12---10--12--8---7---8---4---------------------|
E|---------------------------------------------------------------------------|

Verse: (Use a pick and strum FAST)

e|---------------------------------------------------------------------------|
B|---------------------------------------------------------------------------|
G|---------------------------------------------------------------------------|*
D|---------------------------------------------------------------------------|*
A|55555555555555545555555555555556555555555555555455555555-10-8878-----------|
E|---------------------------------------------------------------------------|

Chorus:

e|---------------------------------------------------------------------------|
B|---------------------------------------------------------------------------|
G|---------------------------------------------------------------------------|
D|---------------------------------------------------------------------------|
A|4---5-5-5---7/8\7---8---7---4---10---7---8-8-7---12--12--12----------------|
E|---------------------------------------------------------------------------|

e|---------------------------------------------------------------------------|
B|---------------------------------------------------------------------------|
G|---------------------------------------------------------------------------|
D|---------------------------------------------------------------------------|
A|4---5-5-5---7/8\7---8---7---4---10---7---8-8-7---12--4---5-----------------|
E|---------------------------------------------------------------------------|

Riff:

e|---------------------------------------------------------------------------|
B|---------------------------------------------------------------------------|
G|---------------------------------------------------------------------------|
D|---------------------------------------------------------------------------|
A|5555555587---87878-87---87878---87337---575--------------------------------|

Solo: Verse;Riff;Verse;Verse;Riff

Outro:

e|---------------------------------------------------------------------------|
B|---------------------------------------------------------------------------|
G|---------------------------------------------------------------------------|
D|0--12-0--12--7--5--7--5--3--5--3--5--3--0--3--0----------------------------|
A|-------------------------------------------------3-------------------------|


************************************

| /   slide up
| \   slide down
| h   hammer-on
| p   pull-off
| ~   vibrato
| +   harmonic
| x   Mute note
| b   Bend
| pb  Pre-bend
| br  Bend release
| pbr Pre-bend release
| brb Bend release bend

************************************
Добавлено: 01.02.2014
Другие материалы по этой песне:
  • Аккорды и текст

Страница создана 01.02.2014
http://primanota.ru/misc-unsigned-bands/colnusca-nightmares-of-the-haunting-chords.htm
Привет, Гость.
Предлагаем пройти революционный курс по гитаре.
Подарок от PrimaNota.Ru, забирай!